Guitaretab - guitar tabs
Song name
# A B C D E F G H I J K L M N O P Q R S T U V W X Y Z

Misc Unsigned Bands - Jed Darger - Arrogant Fool tab

Arrogant Foolę
Jed Darger
Demo
Tabbed By: Jed Darger
100% correct 

[Intro starts with drums than bass]
Intro:
Guitar 1
e|-----|-----|-----|-----|
B|-----|-----|-----|-----|
G|-5---|--9--|-----|-----|
D|-5---|--9--|--7--|--3--|
A|-3---|--7--|--7--|--3--|
D|-----|-----|--7--|--3--|do each chord segment x8 (Whole thing x4)
 
after 2 times, Guitar 2 comes in with this
Guitar 2
e|----|-----|-----|-----|
B|--5-|---8-|---1-|-----|
G|-5--|--9--|--2--|---2-|
D|----|-----|-----|--3--|
A|----|-----|-----|-----|
D|----|-----|-----|-----|play both notes in each segment x8 (Whole thing x2)


Verse 1
Guitar 1
e|-----|-----|-----|-----|
B|-----|-----|-----|-----|
G|-5---|--9--|-----|-----|
D|-5---|--9--|--7--|--3--|
A|-3---|--7--|--7--|--3--|
D|-----|-----|--7--|--3--|each chord segment x8 (Whole thing x2)
PM .      .     .     .

Verse 2
Guitar 1
e|---------|---------|---------|---------|
B|---------|---------|---------|---------|
G|-5-5-5-5-|-9-9-9-9-|---------|---------|
D|-3-5-5-5-|-9-9-9-9-|-7-7-7-7-|-3-3-3-3-|
A|-3-3-3-3-|-7-7-7-7-|-7-7-7-7-|-3-3-3-3-|
D|---------|---------|-7-7-7-7-|-3-3-3-3-|Each segment x4 (Whole thing x2)
PM . .   .   . .   .   . .   .   . .   .

While guitar 1 does both of those 2 verses...
Guitar 2
e|---------|---------|---------|-----0----|
B|-----5---|-----8---|-----1---|---1---1--|
G|-5-5-5-5-|-9-9-9-9-|-2-2-2-2-|--2-2-2-2-|
D|---------|---------|---------|-3--------|First 3 segments are done x4
A|---------|---------|---------|----------|Last segment is done x2
D|---------|---------|---------|----------|(Whole thing is done x4)
PM . .   .   . .   .   . .   .   
[ Tab from: http://www.guitaretab.com/m/misc-unsigned-bands/111113.html ]
strum up and down right here
[Chorus]
e|-----|-----|-----|-----|
B|-----|-----|-----|-----|
G|-----|-----|-----|-----|
D|-7---|--9--|--5--|--3--|
A|-7---|--9--|--5--|--3--|Do each chord segment x16 (strumming up and down)
D|-7---|--9--|--5--|--3--|(Whole Thing x2)

Verse 3
Guitar 1
e|-----|-----|-----|-----|
B|-----|-----|-----|-----|
G|-5---|--9--|-----|-----|
D|-5---|--9--|--7--|--3--|
A|-3---|--7--|--7--|--3--|
D|-----|-----|--7--|--3--|each chord segment x8 (Whole thing x2)
PM .      .     .     .

Verse 4
Guitar 1
e|---------|---------|---------|---------|
B|---------|---------|---------|---------|
G|-5-5-5-5-|-9-9-9-9-|---------|---------|
D|-3-5-5-5-|-9-9-9-9-|-7-7-7-7-|-3-3-3-3-|
A|-3-3-3-3-|-7-7-7-7-|-7-7-7-7-|-3-3-3-3-|
D|---------|---------|-7-7-7-7-|-3-3-3-3-|Each segment x4 (Whole thing x2)
PM . .   .   . .   .   . .   .   . .   .

While guitar 1 does both of those 2 verses...
Guitar 2
e|---------|---------|---------|-----0----|
B|-----5---|-----8---|-----1---|---1---1--|
G|-5-5-5-5-|-9-9-9-9-|-2-2-2-2-|--2-2-2-2-|
D|---------|---------|---------|-3--------|First 3 segments are done x4
A|---------|---------|---------|----------|Last segment is done x2
D|---------|---------|---------|----------|(Whole thing is done x4)
PM . .   .   . .   .   . .   .   

[Chorus]
e|-----|-----|-----|-----|
B|-----|-----|-----|-----|
G|-----|-----|-----|-----|
D|-7---|--9--|--5--|--3--|
A|-7---|--9--|--5--|--3--|Do each chord segment x16 (strumming up and down)
D|-7---|--9--|--5--|--3--|(Whole Thing x2)

Guitar 1
e|-----|-----|-----|-----|
B|-----|-----|-----|-----|
G|-5---|--9--|-----|-----|
D|-5---|--9--|--7--|--3--|
A|-3---|--7--|--7--|--3--|
D|-----|-----|--7--|--3--|do each chord segment x8 (Whole thing x4)
 
after 2 times, Guitar 2 comes in with this
Guitar 2
e|----|-----|-----|-----|
B|--5-|---8-|---1-|-----|
G|-5--|--9--|--2--|---2-|
D|----|-----|-----|--3--|
A|----|-----|-----|-----|
D|----|-----|-----|-----|play both notes in each segment x8 (Whole thing x2)

Well Enjoi, this is mostly for Dylan Eastman mostly though. Peace and Love, Jed Darger
Related for Jed Darger - Arrogant Fool tab