Song name
# A B C D E F G H I J K L M N O P Q R S T U V W X Y Z

Misc Unsigned Bands - Gravis - Meaningless War tab

Gravis - Meaningless War
Tabbed By Ryan Wakerell

Intro (Guitar 1)
Eb|---------------------------------|---------------------------------|
Bb|---------------------------------|---------------------------------|
Gb|---------------------------------|-------------------------12b~----|
Db|-----9---10--12--10--9---7---5~--|-----9---10--12--10--9-----------|
Ab|-000---0---0---0---0---0---0-----|-000---0---0---0---0---0---------|
Eb|---------------------------------|---------------------------------|
(Guitar 2)
Eb|---------------------------------|---------------------------------|
Bb|---------------------------------|---------------------------------|
Gb|---------------------------------|-------------------------12b\----|
Db|---------------------------------|---------------------------------|
Ab|---------------------------------|---------------------------------|
Eb|---------------------------------|---------------------------------|
(Guitar 1)
Eb|---------------------------------|---------------------------------|
Bb|---------------------------------|---------------------------------|
Gb|---------------------------------|-------------------------12b~----|
Db|-----9---10--12--10--9---7---5~--|-----9---10--12--10--9-----------|
Ab|-000---0---0---0---0---0---0-----|-000---0---0---0---0---0---------|
Eb|---------------------------------|---------------------------------|
(Guitar 2)
Eb|---------------------------------|---------------------------------|
Bb|---------------------------------|---------------------------------|
Gb|-2~------------------------------|-(2)---------------------12b~----|
Db|-2~------------------------------|-(2)-----------------------------|
Ab|-0~------------------------------|-(0)-----------------------------|
Eb|-0~------------------------------|-(0)-----------------------------|
(Guitars 1&2)
Eb|---------------------------------|---------------------------------|
Bb|---------------------------------|---------------------------------|
Gb|---------------------------------|-------------------------12b~----|rpt
Db|-----9---10--12--10--9---7---5~--|-----9---10--12--10--9-----------|x2
Ab|-000---0---0---0---0---0---0-----|-000---0---0---0---0---0---------|
Eb|---------------------------------|---------------------------------|

Eb|---------------------------------|---------------------------------|
Bb|---------------------------------|---------------------------------|
Gb|-7~--------------5~--------------|-4-4-4-4-4-4-4-4-4---------------|
Db|-7~--------------5~--------------|-4-4-4-4-4-4-4-4-4---------------|
Ab|-5~--------------3~--------------|-2-2-2-2-2-2-2-2-2---5-6-7-6-5---|
Eb|---------------------------------|---------------------------------|
                                      PM...........................
Verse x6 (Guitars 1$2)
Eb|---------------------------------|---------------------------------|
Bb|---------------------------------|---------------------------------|
Gb|-9-------------------------------|---------------------------------|
Db|-9-------------------------------|-10--------------12~---10~---9---|
Ab|-7---777-777-777-9~--910~--109~--|-10--------------12~---10~---9---|
Eb|---------------------------------|-8---888-888-888-10~---8~----7---|
        PM.........                       PM.........
Chorus x4 (Guitars 1&2)
Eb|---------------------------------|---------------------------------|
Bb|---------------------------------|---------------------------------|
Gb|-9---x-9---x-9---10--x-9---x-9---|-10--x-9---x-9-------------------|
Db|-9---x-9---x-9---10--x-9---x-9---|-10--x-9---x-9-------------------|
Ab|-7---x-7---x-7---8---x-7---x-9---|-8---x-7---x-7---555-555-333-333-|
Eb|---------------------------------|---------------------------------|
                                                      PM.............
Fill 1
Eb|---------------------------------|
Bb|---------------------------------|
Gb|-4-4-4-4-4-4-4-4-4---------------|
Db|-4-4-4-4-4-4-4-4-4---------------|
Ab|-2-2-2-2-2-2-2-2-2---------------|
Eb|---------------------------------|
    PM.............

Solo 1 (Guitar 2 Chorus x4)
Verse x6
Chorus x4
Fill 1

Solo 2 x6 (Guitar 2)
Eb|---------------------------------|---------------------------------|
Bb|---------------------------------|---------------------------------|
Gb|-12119-9-9-9-9-9-12119-9-9-9-9-9-|-12119-9-9-9-9-9/1212121211111111|
Db|-12119-9-9-9-9-9-12119-9-9-9-9-9-|-12119-9-9-9-9-9/1212121211111111|
Ab|-109-7-7-7-7-7-7-109-7-7-7-7-7-7-|-109-7-7-7-7-7-7/101010109-9-9-9-|
Eb|---------------------------------|---------------------------------|
        PM.........     PM.........       PM..........................
Solo 2 Bridge x2 (Guitar 2)
Eb|---------------------------------|---------------------------------|
Bb|---------------------------------|---------------------------------|
Gb|-12119---9---9---12119---9---9---|-12119---9---9--9/12-12--11--11--|
Db|-12119---9---9---12119---9---9---|-12119---9---9--9/12-12--11--11--|
Ab|-109-7---7---7---109-7---7---7---|-109-7---7---7--7/10-10--9---9---|
Eb|---------------------------------|---------------------------------|
    PM...........................     PM............................
Chorus x4

Bridge (Guitars 1&2)                                            rpt x4
Eb|---------------------------------|---------------------------------|
Bb|---------------------------------|---------------------------------|
Gb|*9~--------------11~---12~---11~-|--------------------------------*|
Db|*9~--------------11~---12~---11~-|-10~-------------12~---10~---9~-*|
Ab|-7~--------------9~----10~---9~--|-10~-------------12~---10~---9~--|
Eb|---------------------------------|-8~--------------10~---8~----7~--|

(Guitar 1)
Eb|---------------------------------|---------------------------------|
Bb|-5~--------------7~----8~----7~--|---------------------------------|
Gb|---------------------------------|-5~--------------7~----5~----4~--|
Db|---------------------------------|---------------------------------|
Ab|---------------------------------|---------------------------------|
Eb|---------------------------------|---------------------------------|

Eb|---------------------------------|---------------------------------|
Bb|-5~--------------7~----8~----7~--|---------------------------------|
Gb|---------------------------------|-5~--------------7~----5~----7/--|
Db|---------------------------------|---------------------------------|
Ab|---------------------------------|---------------------------------|
Eb|---------------------------------|---------------------------------|

Eb|-12~-------------14~---15~---14~-|---------------------------------|
Bb|---------------------------------|-13~-------------15~---13~---12~-|
Gb|---------------------------------|---------------------------------|
Db|---------------------------------|---------------------------------|
Ab|---------------------------------|---------------------------------|
Eb|---------------------------------|---------------------------------|

Eb|-12~-------------14~---15~---14~-|---------------------------------|
Bb|---------------------------------|-13~---------13--15--13--12h1312\|
Gb|---------------------------------|---------------------------------|
Db|---------------------------------|---------------------------------|
Ab|---------------------------------|---------------------------------|
Eb|---------------------------------|---------------------------------|
(Guitar 2)                                                      rpt x4
Eb|---------------------------------|---------------------------------|
Bb|---------------------------------|---------------------------------|
Gb|*9~--------------11~---12~---11~-|--------------------------------*|
Db|*9~--------------11~---12~---11~-|-10~-------------12~---10~---9~-*|
Ab|-7~--------------9~----10~---9~--|-10~-------------12~---10~---9~--|
Eb|---------------------------------|-8~--------------10~---8~----7~--|

(Guitar 1)                                                      rpt x4
Eb|---------------------------------|---------------------------------|
Bb|---------------------------------|---------------------------------|
Gb|*--------------------------------|--------------------------------*|
Db|*----9---10--12--10--9---7---5~--|-----9---10--12--10--9---7---5~-*|
Ab|-000---0---0---0---0---0---0-----|-000---0---0---0---0---0---0-----|
Eb|---------------------------------|---------------------------------|
(Guitar 2)                                                      rpt x4
Eb|---------------------------------|---------------------------------|
Bb|---------------------------------|---------------------------------|
Gb|*9~--------------11~---12~---11~-|--------------------------------*|
Db|*9~--------------11~---12~---11~-|-10~-------------12~---10~---9~-*|
Ab|-7~--------------9~----10~---9~--|-10~-------------12~---10~---9~--|
Eb|---------------------------------|-8~--------------10~---8~----7~--|

Outro
(Guitars 1&2)
Eb|---------------------------------|---------------------------------|
Bb|---------------------------------|---------------------------------|
Gb|---------------------------------|-------------------------12b~----|rpt
Db|-----9---10--12--10--9---7---5~--|-----9---10--12--10--9-----------|x2
Ab|-000---0---0---0---0---0---0-----|-000---0---0---0---0---0---------|
Eb|---------------------------------|---------------------------------|

Eb|---------------------------------|---------------------------------|
Bb|---------------------------------|---------------------------------|
Gb|-7~--------------5~--------------|-4-4-4-4-4-4-4-4-4---------------|
Db|-7~--------------5~--------------|-4-4-4-4-4-4-4-4-4---------------|
Ab|-5~--------------3~--------------|-2-2-2-2-2-2-2-2-2---5-6-7-6-5---|
Eb|---------------------------------|---------------------------------|
                                      PM...........................
Eb|---------------------------------|
Bb|---------------------------------|
Gb|-2~------------------------------|
Db|-2~------------------------------|
Ab|-0~------------------------------|
Eb|-0~------------------------------|
Tap to rate this tab
# A B C D E F G H I J K L M N O P Q R S T U V W X Y Z