Song name
# A B C D E F G H I J K L M N O P Q R S T U V W X Y Z

Misc Unsigned Bands - D315 - The World To Me tab

I wrote this song, "The World to Me"
This is my first tab.
______= hold the chord out.

Intro

1/--6-6-5-6-6-5-6-5--6-6-5-6-6-5-6-5--6-6-5-6-6-5-6-5--6-6-5--6-6--5-5--5-6-7--5-6-7--5-6-7--5-6-7|
2/--7-7-7-7-7-7-7-7--7-7-7-7-7-7-7-7--7-7-7-7-7-7-7-7--7-7-7--7-7--7-7----------------------------|
3/------------------------------------------------------------------------------------------------|
4/------------------------------------------------------------------------------------------------|
5/------------------------------------------------------------------------------------------------|
6/------------------------------------------------------------------------------------------------|
Repeat


(Sing on repeat)
   She was my Kindergarten Girlfriend
   Loved each other 'fore we knew what love was
   Been together for all this time and
   I never got tired of you 'cause

Chorus

1/---------------------3_____333-----------------------------3____333-------|
2/--------------------------------------------------------------------------|
3/--8_____888-----------------------------8_____888-------------------------|
4/--------------------------------------------------------------------------|
5/--9_____999----------2_____222----------9_____999----------2____222-------|
6/--7_____777----------3_____333----------7_____777----------3____333-------|


You mean the world to me
I want the world to see
We couldn't live without each other
We’ll love each other forever


Play Intro


Play Chorus


You gave the world to me
Together the world we'll see
We'll ride all over on an old Harley-D
We'll be fearless, wild and happy


Solo

1/---6-5-6-7-6-11-9-8-9-10---10---10-------------14-14-12-14-14-12-14---0-|
2/--7---------------------9----9----8-9-8-9-7-8-6-----------------------0-|
3/----------------------------------------------------------------------0-|
4/----------------------------------------------------------------------0-|
5/----------------------------------------------------------------------0-|
6/----------------------------------------------------------------------0-|

Chorus,Sing the first Lyrics

Outré

1/---------------|
2/---------------|
3/----8-------8--|
4/---------------|
5/-------9----9--|
6/--7---------7--|
Tap to rate this tab
 
# A B C D E F G H I J K L M N O P Q R S T U V W X Y Z