Song name
# A B C D E F G H I J K L M N O P Q R S T U V W X Y Z

Misc Unsigned Bands - The Hot Topics - Temper Temper tab

The Hot Topics - Temper - Intro

e ---------------------------|
b ------8----6---------------|
g --5------------------------|
d ---------------------------|
a ---------------------------|
E ---------------------------| for a few times

then

e -----------------------|------------------------|
b -----------------------|------------------------|
g -----------------------|------------------------|
d -555-333---------------|-5-3-5-3--5555----------|
a -333-111-x2------------|-3-1-3-1--3333----------|
E -----------------------|------------------------|
                then
Tap to rate this tab
# A B C D E F G H I J K L M N O P Q R S T U V W X Y Z