Song name
# A B C D E F G H I J K L M N O P Q R S T U V W X Y Z

Misc Unsigned Bands - The Hot Topics - Thats Just How We Roll tab

The Hot Topics - That's Just How We Roll

Intro
                                  1st       2nd
e -----------------------------|---------|-----------------------------------|
b -----------------------------|---------|-----------------------------------|
g -----------------------------|---------|-----------------------------------|
d -11-11-11-9------------------|---------|-----------------------------------|
a -9-9-9-9--7---111111---9-9-9-|-7--4444-|--7--11111-------------------------|
E --------------99999----7-7-7-|-5--2222-|--5--9999--------------------------|


verse

e ---------------------------------------|
b ---------------------------------------|
g ---------------------------------------|
d -11------------------------------------|
a -9---11--9---44444---------------------|
E -----9---7---22222---------------------|


e ---------------------------------------|
b ---------------------------------------|
g ---------------------------------------|
d -11------------------------------------|
a -9---11--9---11111---------------------|
E -----9---7---99999---------------------|

intro repeat
verse
intro
Tap to rate this tab
# A B C D E F G H I J K L M N O P Q R S T U V W X Y Z