Song name
# A B C D E F G H I J K L M N O P Q R S T U V W X Y Z

Misc Unsigned Bands - The Hot Topics - Space Invaders tab

the hot topics - space invaders

intro

e ------------------------------------------------|
b ------------------------------------------------|
g -----------------------555555---10-99999999-577-|
d -----------------------333333---8--77777777-353-|
a -(7)(7)(7)(7)--777777---------------------------|
E -(5)(5)(5)(5)--555555---------------------------|


verse

e ------------------------------|
b ------------------------------|
g ----------------------5-------|
d --7-7-5-7-7-5-7-7-5-7---7-5-7-|
a ------------------------------|
E ------------------------------| x3

e -------------------------------|
b  ---------------------5--------|
g --7-7-5-7-7-5-7-7-5-7---7-5-7--|
d -------------------------------|
a -------------------------------|
E -------------------------- x 1-|

e --------------------------------------|
b --------------------------------------|
g ----------------------5-9 9-7-7-------|
d --7-7-5-7-7-5-7-7-5-7-----------77777-|
a --------------------------------------|
E --------------------------------------|

chorus/intro
Tap to rate this tab
# A B C D E F G H I J K L M N O P Q R S T U V W X Y Z