Song name
# A B C D E F G H I J K L M N O P Q R S T U V W X Y Z

Misc Unsigned Bands - The Ghost Inside - Shiner tab

Help us improve GuitareTab! Take a short survey!
------------------------------------------------------------------------|
------------------------------------------------------------------------|
------------------------------------------------------14-14-14-12-12-12-|
--10-10-10-10-10-10-10-10-10-10-10-10-10-10-10-10-----10-10-10-9--9--9--|
--7--7--7--7--7--7--7--7--7--7--7--7--7--7--7--7------------------------|
------------------------------------------------------------------------|

-----------------------------------------------------------------------------|
-----------------------------------------------------------------------------|
-----------------------------------------------------------------------------|
---7-7-7-7-7-7-7-7-7-7-7-7--10-10-10-10-10-9-9-9-9-9-------------------------|
---3-3-3-3-3-3-3-3-3-3-3-3--5--5--5--5--5--5-5-5-5-5-------------------------|
---3-3-3-3-3-3-3-3-3-3-3-3--5--5--5--5--5--5-5-5-5-5-------------------------|

-------------------------------------------------------------------------------|
--------------------------------------------------13-13-13---------------------|
--------------------------------------------------9--9--9---12-12-12-----------|
--10-10-10-10-10-10-10-10-10-10-10-10-10-10-10-10------------9--9--9-----------|
--7--7--7--7--7--7--7--7--7--7--7--7--7--7--7--7-------------------------------|
-------------------------------------------------------------------------------|

-----------------------------------------------------------------------------|
-----------------------------------------------------------------------------|
-----------------------------------------------------------------------------|
---7-7-7-7-7-7-7-7-7-7-7-7--10-10-10-10-10-9-9-9-9-9-------------------------|
---3-3-3-3-3-3-3-3-3-3-3-3--5--5--5--5--5--5-5-5-5-5-------------------------|
---3-3-3-3-3-3-3-3-3-3-3-3--5--5--5--5--5--5-5-5-5-5-------------------------|


0:53

--------------------------------------------------------------------------------|
--------------------------------------------------------------------------------|
--------------------------------------------------------------------------------|
--------------------------------------------------------------------------------|
--3--2--0--6--5-----------------------------------------------------------------|
--3--2--0--6--5-----------------------------------------------------------------|

1:27

--------------------------------------------------------------------------|
--------------------------------------------------------------------------|
--------------------------------------------------------------------------|
--7-7-7-7---7-7-7---9-9---10-10-10-10-10-10-10----9-9---------------------|
--3-3-3-3---3-3-3---5-5---7--7--7--7--7--7--7-----5-5---------------------|
--3-3-3-3---3-3-3---5-5---7--7--7--7--7--7--7-----5-5---------------------|
    * *     * *     * *      *  *     *  *        * *

1:42

--------------------------------------------------------------------------------------|
--------------------------------------------------------------------------------------|
--s14--12----12-------------------14--12----------------------------------------------|
----------14----10---------10-------------14------------------------------------------|
--------------------12--12-----12-----------------------------------------------------|
--------------------------------------------------------------------------------------|


---------------------------------------------------------------------------------------|
---------------------------------------------------------------------------------------|
--s14-12-----12------------14----12~---------------------------------------------------|
----------14----10---------------------------------------------------------------------|
--------------------12--12----12-------------------------------------------------------|
---------------------------------------------------------------------------------------|
Related for The Ghost Inside - Shiner tab