Song name
# A B C D E F G H I J K L M N O P Q R S T U V W X Y Z

Misc Unsigned Bands - Bcrn - The End Is Near tab

Tabbed by: Cameron1888
Email: fretkiller1888@yahoo.com

Tuning: Standard


Intro (x4)
e|--------------------------------------------------------------------------|
B|--------------------------------------------------------------------------|
G|--------------------------------------------------------------------------|
D|-----5-------4-------5----------7-----------------------------------------|
A|---7---7---5---5---5---5----7-----7---------------------------------------|
E|-0-------3-------3--------5-----------------------------------------------|


Verse 1 (x2)
e|--------------------------------------------------------------------------|
B|--------------------------------------------------------------------------|
G|--------------------------------------------------------------------------|
D|---------------5---------------------4----------------------7-------------|
A|---------7-----------7---------5------------5---------5-----------5-------|
E|-000-000---000---000---000-000---000----000---000-000---000---000---------|

Verse 1 (Cont.)
e|--------------------------------------------------------------------------|
B|--------------------------------------------------------------------------|
G|--------------------------------------------------------------------------|
D|---------------9----------------------------------------------------------|
A|---------7-----------7----------------------------------------------------|
E|-000-000---000---000------------------------------------------------------|


Verse 2
e|--------------------------------------------------------------------------|
B|--------------------------------------------------------------------------|
G|--------------------------------------------------------------------------|
D|-3------4-3-------2-3-----4-3---------------------------------------------|
A|-3------4-3-------2-3-----4-3---------------------------------------------|
E|-3------4-3-------2-3-----4-3---------------------------------------------|

Verse 3 (x2)
e|--------------------------------------------------------------------------|
B|--------------------------------------------------------------------------|
G|--------------------------------------------------------------------------|
D|-3-34-3-32-3-34-3-1-------------------------------------------------------|
A -3-34-3-32-3-34-3-1-------------------------------------------------------|
E|-3-34-3-32-3-34-3-1-------------------------------------------------------|


Chorus
(Guitar 1 Plays Verse 1)
(Guitar 2 Plays This)
e|--------------------------------------------------------------------------|
B|--------------------------------------------------------------------------|
G|--------------------------------------------------------------------------|
D|--------------------------------------------------------------------------|
A|-2---5---3---7------------------------------------------------------------|
E|-0---3---1---5------------------------------------------------------------|


Bridge - Play Intro

Sorry, I didn't have enough time to tab the solo.
Tap to rate this tab
# A B C D E F G H I J K L M N O P Q R S T U V W X Y Z