Song name
# A B C D E F G H I J K L M N O P Q R S T U V W X Y Z

Misc Unsigned Bands - Bcrn - Awakening tab

Help us improve GuitareTab! Take a short survey!
Tuning: Standard


Intro
e|--------------------------------------------------------------------------|
B|--------------------------------------------------------------------------|
G|--------------------------------------------------------------------------|
D --------------------------------------------------------------------------|
A|-2-------------------------3-2-------------------------3-5----------------|
E|-0-0-0-0-0-0-0-0-0-0-0-0-0-1-0-0-0-0-0-0-0-0-0-0-0-0-0-1-3----------------|


Intro (Cont.)
e|--------------------------------------------------------------------------|
B|--------------------------------------------------------------------------|
G|--------------------------------------------------------------------------|
D|--------------------------------------------------------------------------|
A|-------------------------5-2----------------------------------------------|
E|-3-3-3-3-3-3-3-3-3-3-3-3-3-0----------------------------------------------|


Verse 1
e|--------------------------------------------------------------------------|
B|--------------------------------------------------------------------------|
G|---------------------------------2-4--------------------------------------|
D|-----------------------------2-3------------------------------------------|
A|-2-00-00-3-00-00-5-00-00-2-3---------2-00-00-5-00-00-3-00-00--------------|
E|-0-00-00-1-00-00-3-00-00-------------0-00-00-3-00-00-1-00-00-6-3-5-3-4-3--|


Verse 2
e|--------------------------------------------------------------------------|
B|--------------------------------------------------------------------------|
G|--------------------------------------------------------------------------|
D|--------------------------------------------------------------------------|
A|-2-0-0-0-0-0-0-3-5-7--2-0-0-0-0-0-0-3-5-7--2-0-0-0-0-0-0-3-3/5-5/7-7/8-9*-|
E|-0-0-0-0-0-0-0-1-3-5--0-0-0-0-0-0-0-1-3-5--0-0-0-0-0-0-0-1-1/3-3/5-5/6----|


Verse 3
e|--------------------------------------------------------------------------|
B|--------------------------------------------------------------------------|
G|--------------------------------------------------------------------------|
D|-----------------8-7---6-5---4-3------------------------------------------|
A|-8-7-----6-5--------------------------------------------------------------|
E|-----000-----000----0------0----------------------------------------------|

Chorus
e|--------------------------------------------------------------------------|
B|--------------------------------------------------------------------------|
G|--------------------------------------------------------------------------|
D|-0-0-00-0-0-0--3-3-33-3-3-3--5-5-55-5-5-5--1-1-1-11--0-0-0----------------|
A|-0-0-00-0-0-0--3-3-33-3-3-3--5-5-55-5-5-5--1-1-1-11--0-0-0----------------|
E|-0-0-00-0-0-0--3-3-33-3-3-3--5-5-55-5-5-5--1-1-1-11--0-0-0----------------|


Bridge
e|--------------------------------------------------------------------------|
B|--------------------------------------------------------------------------|
G|--------------------------------------------------------------------------|
D|--------------------------------------------------------------------------|
A|-2-------------2-3-4-3-2-2------------------------------------------------|
E|-0-0-0-0-0-0-0-0-1-2-1-0-0-0-0-0-0-0-0------------------------------------|

Solo Not Tabbed.
Related for Bcrn - Awakening tab