Song name
# A B C D E F G H I J K L M N O P Q R S T U V W X Y Z

Misc Unsigned Bands - First Final Stand - Ametalx tab

----------------------------------------------------------------------------
		       First & Final Stand - A.Metal.X
----------------------------------------------------------------------------
Tabbed by: XxHeelyZxX (creator of song :D)
Email: XxHeelyZxX@aim.com / XxNaKoWnErxX@yahoo.com

Tuning: Standard eBGDAE

this is an original song. u can listen to the song on my profile. thx =]

Intro:Pt. 1 x2 on the repeat dont p.m. 
e|-------------------------------------|the last 
B|-------------------------------------|note and 
G|-------------------------------------|do a slide 
D|-------------------------------------|after the 
A|-------------------------------------|last note
E|--0-00-00-2-22-22-(/during-repeat)---|
P.M.. .. .. . .. ..
   ^------^|^------^ 
   x2          x2

Intro:Pt. 2 x2 after repeated, let 
e|---------------------------------|the last 
B|---------------------------------|chord ring
G|---------5-55-55-----------------|for a few sec
D|-5-55-55-5-55-55-8-88-88-3-33-33-|then
A|-5-55-55-3-33-33-8-88-88-3-33-33-|mute 
E|-3-33-33---------6-66-66-1-11-11-|it
  ^------^|^-----^|^-----^|^------^|    
    x2        x2      x2    x2

1st Verse: x2. during repeat, dont p.m. 
e|---------------------------------|the last
B|---------------------------------|chord
G|-------------------------7-77-77-|
D|-9-99-99-7-77-77-9-99-99-7-77-77-|
A|-9-99-99-7-77-77-9-99-99-5-55-55-|
E|-7-77-77-5-55-55-7-77-77---------|
   . .. .. . .. .. . .. .. . .. ..   
  ^------^|^-----^|^-----^|^------^
   x2       x2       x2       x2      
                                                      
1st Chorus: Same as Pt. 2 x2 after repeated
e|----------------------------------|let the
B|----------------------------------|last chord 
G|---------5-55-55------------------|ring for a
D|-5-55-55-5-55-55-8-88-88-3-33-33--|few sec then
A|-5-55-55-3-33-33-8-88-88-3-33-33--|mute it
E|-3-33-33---------6-66-66-1-11-11--|
  ^------^|^-----^|^-----^|^------^|    
    x2        x2      x2    x2

2nd Verse: x2. during repeat, dont p.m.
e|---------------------------------|the 
B|---------------------------------|last 
G|-------------------------7-77-77-|chord
D|-9-99-99-7-77-77-9-99-99-7-77-77-|
A|-9-99-99-7-77-77-9-99-99-5-55-55-|
E|-7-77-77-5-55-55-7-77-77---------|
   . .. .. . .. .. . .. .. . .. ..   
  ^------^|^-----^|^-----^|^------^
   x2       x2       x2       x2   

2nd Chorus: Same as before x2 after repeated
e|----------------------------------|let the last
B|----------------------------------|chord ring 
G|---------5-55-55------------------|for a few sec
D|-5-55-55-5-55-55-8-88-88-3-33-33--|then 
A|-5-55-55-3-33-33-8-88-88-3-33-33--|mute 
E|-3-33-33---------6-66-66-1-11-11--|it
  ^------^|^-----^|^-----^|^------^|    
    x2        x2      x2    x2
Bridge:x1 
e|-------------------------------|
B|-------------------------------|
G|--------3~--3~----------5~///--|
D|5~--5~--3~--3~--3~--3~--5~///--|
A|5~--5~--1~--1~--3~--3~--3~///--|
E|3~--3~----------1~--1~---------|

3rd Chorus: Same as previous choruses
e|----------------------------------|
B|----------------------------------|
G|---------5-55-55------------------|
D|-5-55-55-5-55-55-8-88-88-3-33-33--|
A|-5-55-55-3-33-33-8-88-88-3-33-33--|
E|-3-33-33---------6-66-66-1-11-11--|
  ^------^|^-----^|^-----^|^------^|    
    x2        x2      x2    x2

Outro:
e|---------------------------------------------------------------|
B|---------------------------------------------------------------|
G|--------------55-5-5-55-5-5-33-3-3-33-3-3----------------------|
D|55-5-5-55-5-5-55-5-5-55-5-5-33-3-3-33-3-3-33-3-3-33-3-3~---///-| 
A|55-5-5-55-5-5-33-3-3-33-3-3-11-1-1-11-1-1-33-3-3-33-3-3~---///-|
E|33-3-3-33-3-3-----------------------------11-1-1-11-1-1~---///-|


| /  slide up
| \  slide down
| h  hammer-on
| p  pull-off
| ~  Let ring
| +  harmonic
| . Palm Muted note
===============================================================================
Tap to rate this tab
# A B C D E F G H I J K L M N O P Q R S T U V W X Y Z