Song name
# A B C D E F G H I J K L M N O P Q R S T U V W X Y Z

Misc Unsigned Bands - Trigger Theory - As We Fall tab

www.myspace.com/xtriggerxtheoryx

AS WE FALL

Rough as Rhythm Guitar Tab.
In DADGAD or Drop D
Sorry its rough as.

0'00 to 0'07

d|----------------------------------------------|
a|----------------------------------------------|
g|-----------------5----------------------------|
d|--10-------------3----------------------------| x2
a|--7--------------3----------------------------|
d|--7--------------3----------------------------|

0'08 to 0'17

x x x x  x  x  x x
x x x x  x  x  x x
4 4 5 5 12 12 1212
x x x x  x  x  x x
2 2 3 3 10 10 1010
x x x x  x  x  x x

0'18 to 0'25

 x  x  x  x  x  x  x
 x  x  x  x  x  x  x
15151414 12 12 12 12
 x  x  x  x  x  x  x
13131212 10 10 10 10
 x x x x  x  x x   x

0'26 t0 0'30

x x x x  x
x x x x  x
4 4 5 5 12
x x x x  x
2 2 3 3 10
x x x x  x

i put x's on those cause you have to mute quite carefully or else it will sound like ass!

and then

0'31 to 0'41

d|---------------------------------------------------------------------------|
a|---------------------------------------------------------------------------|
g|-5-------5--------5-------5--------5-5-5-5-5-5-5-5-------------------------|
d|-5-------3--------5-------5--------3-3-3-3-3-3-3-3-------------------------|
a|-3-------3--------3-------2--------3-3-3-3-3-3-3-3-------------------------|
d|---------3-------------------------3-3-3-3-3-3-3-3-------------------------|

0'42 to 0'53

d|---------------------------------------------------------------------------|
a|---------------------------------------------------------------------------|
g|-5-------5--------5-------5--------5-5-5-5-5-5-5-5-------------------------|
d|-5-------3--------5-------5--------3-3-3-3-3-3-3-3-------------------------|
a|-3-------3--------3-------2--------3-3-3-3-3-3-3-3-------------------------|
d|---------3-------------------------3-3-3-3-3-3-3-3-------------------------|

Chorus 0'54 to 1'15

d|---------------------------------------|
a|---------------------------------------|
g|--------5--------5-------7-------------|  x4
d|-10-----3--------5-------5-------------|
a|--7-----3--------3-------5-------------|
d|--7-----3----------------5-------------|

Then the lead thing again..

x x x x  x  x  x x
x x x x  x  x  x x
4 4 5 5 12 12 12 12    x4
x x x x  x  x  x x
2 2 3 3 10 10 10 10
x x x x  x  x  x x

then 1'28 do the first verse chords till 1'52

d|---------------------------------------------------------------------------|
a|---------------------------------------------------------------------------|
g|-5-------5--------5-------5--------5-5-5-5-5-5-5-5-------------------------|
d|-5-------3--------5-------5--------3-3-3-3-3-3-3-3-------------------------| x2
a|-3-------3--------3-------2--------3-3-3-3-3-3-3-3-------------------------|
d|---------3-------------------------3-3-3-3-3-3-3-3-------------------------|

Then chorus

Chorus 1'55 to 2'13

d|---------------------------------------|
a|---------------------------------------|
g|--------5--------5-------7-------------|  x4
d| 10-----3--------5-------5-------------|
a| -7-----3--------3-------5-------------|
d| -7-----3----------------5-------------|


Then lead thing in the bridge... its the same as the intro just with screaming.

x x x x  x  x  x x
x x x x  x  x  x x
4 4 5 5 12 12 12 12
x x x x  x  x  x x
2 2 3 3 10 10 10 10
x x x x  x  x  x x

 x  x  x  x  x  x  x x
 x  x  x  x  x  x  x x
15 15 14 14 12 12 12 12
 x  x  x  x  x  x  x x
13 13 12 12 10 10 10 10
 x  x x x    x  x x x

x x x x  x
x x x x  x
4 4 5 5 12
x x x x  x
2 2 3 3 10
x x x x  x

and then the mellow bit at 2'40 till 2'46

d|---------------------------------------------|
a|---------------------------------------------|
g|----------------5----------------------------|
d|-10-------------3----------------------------| x2
a|--7-------------3----------------------------|
d|--7-------------3----------------------------|

Then play the chorus like palm muting build up.. so palm mute all the notes.

2'47 to 2'52

d|---------------------------------------|
a|---------------------------------------|
g|--------5--------5-------7-------------|
d| 10-----3--------5-------5-------------|
a| -7-----3--------3-------5-------------|
d| -7-----3----------------5-------------|

and then 2'53 to 3'15 is the chorus

d|---------------------------------------|
a|---------------------------------------|
g|--------5--------5-------7-------------|
d| 10-----3--------5-------5-------------|
a| -7-----3--------3-------5-------------|
d| -7-----3----------------5-------------|

x x x x  x  x  x x
x x x x  x  x  x x
4 4 5 5 12 12 12 12
x x x x  x  x  x x      x how ever many it takes to finish.
2 2 3 3 10 10 10 10
x x x x  x  x  x x
Tap to rate this tab
 
# A B C D E F G H I J K L M N O P Q R S T U V W X Y Z