Song name
# A B C D E F G H I J K L M N O P Q R S T U V W X Y Z

Misc Unsigned Bands - The Prodigy Affair - Toxic Radio tab

-------------------------------------------------------------------------------
			     TOXIC RADIO - The Prodigy Affair
-------------------------------------------------------------------------------

Tuning: Standard

INTRO:

Guitar 1 (main riff)
e|---------------------------------------------------------------------------|
B|-8-8-6-8-8-8---------------------------------------------------------------|
G|-9-9-7/9-9-9---------------------------------------------------------------|
D|-9-9-7/9-9-9---5-5-5-5---7-7-7-7-------------------------------------------|
A|-7-7-5/7-7-7---5-5-5-5---7-7-7-7-------------------------------------------|
E|---------------3-3-3-3---5-5-5-5-------------------------------------------|

Guitar 2 (in later)
e|-7-5-5-7-5-7-5-7-----------------------------------------------------------|
B|---------------------------------------------------------------------------|
G|---------------------------------------------------------------------------|
D|---------------------------------------------------------------------------|
A|---------------------------------------------------------------------------|
E|---------------------------------------------------------------------------|

That's basically the whole song. The solo starts out with guitar 2's part but then goes 
on something else, which I couldn't get.
Tap to rate this tab
# A B C D E F G H I J K L M N O P Q R S T U V W X Y Z