Song name
# A B C D E F G H I J K L M N O P Q R S T U V W X Y Z

Misc Unsigned Bands - Michael Jordan Touchdown Pass - The Waltz Of The Moronic tab

Michael Jordan Touchdown Pass
The Waltz of the Moronic

     A               D               E              A
E |----------------------------------------------------------------|
B |-----2-2-----2-2-----3-3-----3-3--------------------------------|
G |--2-------2-------2-------2---------1-1-----1-1-----2-2-----2-2-|
D |----------------------------------2------2-------2-------2------|
A |----------------------------------------------------------------|
E |----------------------------------------------------------------|

variation
E |----------------------------------------------------------------|
B |-----2-2-----2-2-----3-3-----3-3--------------------------------|
G |------------------------------------1-1-----1-1-----2-2-----2-2-|
D |------------------0-------0-------2------2----------------------|
A |--0-------0--------------------------------------0-------0------|
E |----------------------------------------------------------------|

2nd guitar riff
E |---5/9----12-----9/14--12----12------9/14--12----12-------------|----------------|------------|
B |--------------------------14------------------14----------------|--14--12-12/14--|--9/14-12---|
G |----------------------------------------------------------------|----------------|----------14|
D |----------------------------------------------------------------|----------------|------------|
A |----------------------------------------------------------------|----------------|------------|
E |----------------------------------------------------------------|----------------|------------|
chords
Anything said by anyone...
A      D      E      E


solo
E |-------------------------------------------------------------|
B |-------------------------------------------------------------|
G |-------------------------------------------------------------|
D |-------------------------------------------------------------|
A |--4/9---12\7----9/14---12------------------------------------|
E |---------------------------14\12---12h14p12-----9----7-------|


E |--5/9---9----5/9---9----7/14--12-----------------------------|
B |-----------------------------------14\12~---------------10---|
G |-----------------------------------------------------9-------|
D |-------------------------------------------------------------|
A |-------------------------------------------------------------|
E |-------------------------------------------------------------|
Tap to rate this tab
# A B C D E F G H I J K L M N O P Q R S T U V W X Y Z