Song name
# A B C D E F G H I J K L M N O P Q R S T U V W X Y Z

Misc Unsigned Bands - Second Sike - Our Armegeddon tab

Help us improve GuitareTab! Take a short survey!
This is my first tab.
Its a good way to get my fingers moving along the fret board in one spot. This song is 
bands first song we made up,and we thought it sounded ok so we just started playing it 
playing it.
Its really easy but we think it sounds good for one of our first songs. When playing 
tab, you need to tune your 6th string down to C.
Thats all you have to do to make it sound more metal.

x- lay fingers across the strings on the 1st fret
b- bend

E/------------------------------------------------------------------------|
B/------------------------------------------------------------------------|
G/------------------------------------------------------------------------|
D/------------------------------------------------------------------------|
A/------------------------------------------------------------------------|
C/x-x-3-x-x-5-x-x-3-x-x-5-x-x-3-x-x-5-x-x-1-1-1-1-x-x-1-x-x-1-x-x-1-x-x-1-|

E/--------------------------------------------|
B/--------------------------------------------|
G/-----------------------------------------3--|b
D/---------3-2-1-3-2-1-3-2-1-3-2-1------------|
A/---------3-2-1-3-2-1-3-2-1-3-2-1-1-1-1-1----|
C/-1-1-1-1-------------------------1-1-1-1----|
Related for Second Sike - Our Armegeddon tab