Song name
# A B C D E F G H I J K L M N O P Q R S T U V W X Y Z

Misc Unsigned Bands - Fake Sensation - Cym tab

-------------------------------------------------------------------------------
			          C.Y.M (the special bus)- Fake Sensation
-------------------------------------------------------------------------------
Tabbed by:***
Email:***

Tuning:


E|-0-------3--------0-------2--------3/5/3--------------------------------------------|
B|-0-------0--------1-------0----------------5/3/5------------------------------------|
G|-0-------0--------3-------2---------------------------------------------------------|
D|-2-------0--------2-------1---------------------------------------------------------|
A|-2-------2--------3-------2---------------------------------------------------------|
E|-0-------3--------------------------------------------------------------------------|

E-----------------|-----------------|
B-----------------|-----------------|
G-----------------|-----------------|
D---2-x-5-x-10-x--|-9-9-9-x-x-x-----| 2X times
A---2-x-5-x-10-x--|-9-9-9-x-x-x-----|
E---0-x-3-x-8--x--|-7-7-7-x-x-x-----|

E---7--7----10----|-8--7------------|-----------------|-----12----------|
B----8--8----12s--|--8---7----------|-----------------|-----12----------|
G----9--9----12s--|--9---8----------|-----------------|-----12----------|
D-----------------|-----------x-x---|-2s--5-----------|-----------------|
A-----------------|-----------x-x---|-2s--5-------2---|-----------------|
E-----------------|-----------x-x---|-0s--0-3-5-3-0---|-----------------|

chorus :

E--0-0-0-3-3-3---|-0-0-0-2-2-2------|
B--0-0-0-0-0-0---|-1-1-1-0-0-0------|
G--0-0-0-0-0-0---|-3-3-3-2-2-2------|
D--2-2-2-0-0-0---|-2-2-2-1-1-1------|
A--2-2-2-2-2-2---|-3-3-3-2-2-2------|
E--0-0-0-3-3-3---|------------------|

interlude :

E|----------------|---3s-5s-3s------|
B|----------------|---3s-5s-3s------|
G|-----2s-4s-2/0--|-------------3-2-|
D|----------------|-------------2-1-|
A|--2-------------|-5----------3----|
E|--0-------------|-3---------------|

E|----------------|-----------------|
B|----------------|-----------------|
G|----------------|-----------------|
D|-10-9-9--X------|--5-5-5-5---2----|
A|-10-9-9--X------|--5-5-5-5---2----|
E|-8--7-7--X------|--3-3-3-3---0----|


chorus :

E--0-0-0-3-3-3---|-0-0-0-2-2-2------|
B--0-0-0-0-0-0---|-1-1-1-0-0-0------|
G--0-0-0-0-0-0---|-3-3-3-2-2-2------|
D--2-2-2-0-0-0---|-2-2-2-1-1-1------|
A--2-2-2-2-2-2---|-3-3-3-2-2-2------|
E--0-0-0-3-3-3---|------------------|


Solo :

E--------12b-----|--------------------------------------------------------|
B-15-12-----8-10-|-----8b----8----8----8---10b-10b-10b-10b-10b-8s3s5------|
G------14--------|-9-7----9-7--9-7--9-7------------------------7s2s4------|
D----------------|--------------------------------------------------------|
A----------------|--------------------------------------------------------|
E----------------|--------------------------------------------------------|

|------10---10-12b--------------------12-15--17-15---17-15---17-15--18-17-15|
|-10-12---12---------------------12-15------------17-------17-----17------15|
|---------------------------12-14-------------------------------------------|
|----------------------12-14------------------------------------------------|
|-----------------12-14-----------------------------------------------------|
|---------------------------------------------------------------------------|


E-12-X-12s-3----3--------------------------|
B-12-X-12s-3-3-5-5-3-----------------------|
G--------------------2b-2b-7-4-------------|
D--------------------------5-2-0-0-0/(2)---|
A------------------------------------------|
E------------------------------------(0)---|

end

E-----------------|------------6s-7---(12)~-|
B-----------------|------------7s-8---(12)~-|
G-----------------|------------6s-7---(12)~-|
D---2-x-5-x-10-x--|-9-9-9-x-x-x-------------|
A---2-x-5-x-10-x--|-9-9-9-x-x-x-------------|
E---0-x-3-x-8--x--|-7-7-7-x-x-x-------------|


| /  slide up
| \  slide down
| h  hammer-on
| p  pull-off
| ~  vibrato
| +  harmonic
| x  Mute note
===============================================================================

lyrics :

i will take the 57
i will go to the moon
i will take the 33
i will go to the golden sand


(Hurry if you won't to take it)X 3

chorus :

just by another ticket
to go ...........
anywhere........
far away........
in the city of lights....

ohhh!! yes yes yes

tomorow i will meet all my friends
well, i should take the special bus
the fucking 57 57 57 57
yeah the 57

dirty
older
bored!!! wa333333333333
Tap to rate this tab
# A B C D E F G H I J K L M N O P Q R S T U V W X Y Z