Song name
# A B C D E F G H I J K L M N O P Q R S T U V W X Y Z

Misc Unsigned Bands - Ghosts On The Radio - Black tab

hello this is my first tab, the following tab is in standard tuning,
i am not too sure about the solo part late in the song,
and i tabbed this whole song by ear so it might not
be 100% accurate.  please rate...


INTRO:


e----2--2--5-3-3------2--2--------------------------------|
b--3--2--0------0---3--2--0-------------------------------|
g---------------------------------------------------------|
d---------------------------------------------------------|
a---------------------------------------------------------|
E---------------------------------------------------------|

Then bass takes over

Leading up to chorus/ chorus:

                                            Everything looks black...
e----------------------------------------------------|
b----------------------------------------------------|
g----------------------------------------------------|
d--5-5-5-5-5-5-5-5--7-7-7-7-7-7-7-7--9-9-9-9-9-9-9-9-|
a--5-5-5-5-5-5-5-5--7-7-7-7-7-7-7-7--9-9-9-9-9-9-9-9-|
E--3-3-3-3-3-3-3-3--5-5-5-5-5-5-5-5--7-7-7-7-7-7-7-7-|


e-------------------------------------------------|
b-------------------------------------------------|
g-------------------------------------------------|
d-12-12-12-12-12-12-12-12-------------------------|
a-12-12-12-12-12-12-12-12-------------------------|
E-10-10-10-10-10-10-10-10-------------------------|


e----------------------------------------------------|
b----------------------------------------------------|
g----------------------------------------------------|
d--5-5-5-5-5-5-5-5--7-7-7-7-7-7-7-7--9-9-9-9-9-9-9-9-|
a--5-5-5-5-5-5-5-5--7-7-7-7-7-7-7-7--9-9-9-9-9-9-9-9-|
E--3-3-3-3-3-3-3-3--5-5-5-5-5-5-5-5--7-7-7-7-7-7-7-7-|


e-------------------------------------------------|
b-------------------------------------------------|
g-------------------------------------------------|
d-12-12-12-12-12-12-12-12-------------------------|
a-12-12-12-12-12-12-12-12-------------------------|
E-10-10-10-10-10-10-10-10-------------------------|


e----2--2--5-3-3--------------------------------------|
b--3--2--0------0-3-----------------------------------|
g-----------------------------------------------------|
d-----------------------------------------------------|
a-----------------------------------------------------|
E-----------------------------------------------------|


                                            Everything looks black...
e----------------------------------------------------|
b----------------------------------------------------|
g----------------------------------------------------|
d--5-5-5-5-5-5-5-5--7-7-7-7-7-7-7-7--9-9-9-9-9-9-9-9-|
a--5-5-5-5-5-5-5-5--7-7-7-7-7-7-7-7--9-9-9-9-9-9-9-9-|
E--3-3-3-3-3-3-3-3--5-5-5-5-5-5-5-5--7-7-7-7-7-7-7-7-|


e-------------------------------------------------|
b-------------------------------------------------|
g-------------------------------------------------|
d-12-12-12-12-12-12-12-12-------------------------|
a-12-12-12-12-12-12-12-12-------------------------|
E-10-10-10-10-10-10-10-10-------------------------|


e----------------------------------------------------|
b----------------------------------------------------|
g----------------------------------------------------|
d--5-5-5-5-5-5-5-5--7-7-7-7-7-7-7-7--9-9-9-9-9-9-9-9-|
a--5-5-5-5-5-5-5-5--7-7-7-7-7-7-7-7--9-9-9-9-9-9-9-9-|
E--3-3-3-3-3-3-3-3--5-5-5-5-5-5-5-5--7-7-7-7-7-7-7-7-|


e-------------------------------------------------|
b-------------------------------------------------|
g-------------------------------------------------|
d-12-12-12-12-12-12-12-12-------------------------|
a-12-12-12-12-12-12-12-12-------------------------|
E-10-10-10-10-10-10-10-10-------------------------|

solo:

e--9-8-11-9-12-11-15-12-9-8-11-9-12-11-15-12------|
b-------------------------------------------------|
g-------------------------------------------------|    x6 all the way till end of song...
d-------------------------------------------------|
a-------------------------------------------------|
E-------------------------------------------------|

http://profile.myspace.com/index.cfm?fuseaction=user.viewprofile&friendid=9330486
Tap to rate this tab
 
# A B C D E F G H I J K L M N O P Q R S T U V W X Y Z