Song name
# A B C D E F G H I J K L M N O P Q R S T U V W X Y Z

Misc Unsigned Bands - Shore - Little Beach House tab

e-----------0-----------|-----------0----------|
B--------3-----3-----3--|--------2-----2-----2-|
G-----2-----------2-----|-----2-----------2----|
D--0--------------------|--0-------------------|
A-----------------------|----------------------|
E-----------------------|----------------------|

e-----------0-----------|-----------2----------|
B--------1-----1-----1--|--------0-----0-----0-|
G-----2-----------2-----|-----2-----------2----|
D--0--------------------|--0-------------------|
A-----------------------|----------------------|
E-----------------------|----------------------|

e--000--000--000--222--|--000--000--000--222--|
B--333--222--111--000--|--333--222--111--000--|
G--222--222--222--222--|--222--222--222--222--|
D--000--000--000--000--|--000--000--000--000--|
A----------------------|----------------------|
E----------------------|----------------------|
Tap to rate this tab
# A B C D E F G H I J K L M N O P Q R S T U V W X Y Z