Song name
# A B C D E F G H I J K L M N O P Q R S T U V W X Y Z

Misc Unsigned Bands - Norm - Contact tab

------------------------------------------------------------------------------
			     Contact - NORM?
-------------------------------------------------------------------------------
Tabbed by: Keke
Email:

This is my first tab so it might not be that great.


Tuning:Standard
e|---------------------------------------------2------------------------------|
B|----1-/--4---5----3-3h5--3-------1-/--4--5---3------------------------------|
G|----2-/--5---5----2--2-----------2-/--5--5---2------------------------------|
D|----2-/--5---5-------------------2-/--5--5----------------------------------|
A|----------------------------------------------------------------------------|
E|----------------------------------------------------------------------------|

e|------3--3---5---------------5----------------------------------------------|
B|------4--5---7---------4--5--7----------1----1h3p1--------------------------|
G|------5--5---7---------5--5--7------------2--------0-----0-------0----------|
D|-7----5--5---5-----7---5--5--5-----2-----------------2-------4--------------|
A|-7----3--3---------7---3--3----------0--------------3-------5---------------|
E|-5-----------------5------------- ------------------------------------------|

    do this part 4 times:                then play this 2x:
e|----------------------------------------------------------------------------|
B|-----1---1h3p1------------------------------5--5-5h7p5--0-3--5p3------------|
G|-------2--------0-----------0------0--------4-------------2-----------------|
D|---2---------------------2-------4----------5-------------------------------|
A|---0------------------3------5----------------------------------------------|
E|----------------------------------------------------------------------------|

  play this for chorus 8x:                 then play... this 8x:
e|-----3--3---5---------------------------------------------------------------|
B|-----4--5---7--------------------------------1---1-1h3----------------------|
G|-----5--5---7----------------------------------2-------0------0-------0-----|
D|--7--5--5---7------------------------------2---------------2--------4-------|
A|--7--3--3---5------------------------------0-------------3--------5---------|
E|--5-------------------------------------------------------------------------|

e|---------------------------------------------------------------------------|
B|---------------------------------5--5--5h7p5--0--3--5-3---5--5---5h7p5--3--|
G|------------------------------------4-------------2-------4-------------2--|
D|--7-7-7-7----------7-7-7-7-------5------------------------5----------------|
A|--7-7-7-7----------7-7-7-7-------------------------------------------------|
E|--5-5-5-5----------5-5-5-5-------------------------------------------------|

Play chorus again until the end.

The second guitar just plays this when the chorus starts up and on through the end of the song
e|-12-------12--------12------------------------------------------------------|
B|---11h12----11h12-----11h12-------------------------------------------------|
G|----------------------------------------------------------------------------|
D|----------------------------------------------------------------------------|
A|----------------------------------------------------------------------------|
E|----------------------------------------------------------------------------|


| /  slide up
| \  slide down
| h  hammer-on
| p  pull-off
| ~  vibrato
| +  harmonic
| x  Mute note
===============================================================================
Tap to rate this tab
 
# A B C D E F G H I J K L M N O P Q R S T U V W X Y Z