Song name
# A B C D E F G H I J K L M N O P Q R S T U V W X Y Z

Misc Unsigned Bands - Stealth - Offensive Statement tab

                   This is just the intro
                    And Verse

e|---------------------------------------------------------------------------|
B|---------------------------------------------------------------------------|
G|-1/2--------------1/2-------------1/2-3\2---------7--5---------------------|
D|-1/2--------------1/2-------------1/2-3\2---------7--5---------------------|
A|-0----0-0-0-0-0-0-0---0-0-0-0-0-0-0---0---0-0-0-0-5--3---------------------|
E|---------------------------------------------------------------------------|

e|----------------------------------------------------------------------|
B|----------------------------------------------------------------------|
G|-1/2--------------1/2-------------1/2-3\2---------7--5----------------|
D|-1/2--------------1/2-------------1/2-3\2---------7--5--5--7--2-------|
A|-0----0-0-0-0-0-0-0---0-0-0-0-0-0-0---0---0-0-0-0-5--3--5--7--2-------|
E|--------------------------------------------------------3--5--0-------|


e|--------------------------------------------------------|
B|--------------------------------------------------------|
G|-------7--5---------------------------------------------|
D|-------7--5--5--7--9-------7--7h5-7--5------------------|
A|--X-X--5--3--5--7--9-------7------7--5--4--2------------|
E|--X-X--------3--5--7-------5------5--3--2--0------------|

   Verse
e|--------------------------------------------------------------------|
B|--------------------------------------------------------------------|
G|-2---------------5--------------------------------------------------|
D|-2------2--------5------5-------5--------------7--------------------|
A|-0--0-0---0-0-0--3--3-3---3-3-3-5-----5--------7-----7--------------|
E|--------------------------------3-3-3---3-3-3--5-5-5---5-5~~--------|


I will add some more when i have
Tap to rate this tab
# A B C D E F G H I J K L M N O P Q R S T U V W X Y Z