Song name
# A B C D E F G H I J K L M N O P Q R S T U V W X Y Z

Misc Unsigned Bands - Pantheon - The Viking tab

this tab is for the Pantheon song "The Viking", off of Mythology. Okay. notes with a "P" 
to them means to palm mute it, notes without that you let ring out.

http://www.myspace.com/officialpantheonmyspace

Heres the main chord part, it's pretty easy

--------------------------------------------------------|
--------------------------------------------------------|
--------------------------------------------------------|
-5-5P-5P-5P-5P-5P-5P-5P-5P-5-5P-5P-5P-5P-5P-5P-5P-7/8\7-|
-5-5P-5P-5P-5P-5P-5P-5P-5P-5-5P-5P-5P-5P-5P-5P-5P-7/8\7-|
-3-3P-3P-3P-3P-3P-3P-3P-3P-3-3P-3P-3P-3P-3P-3P-3P-5/6\5-|

Just repeat this throughout the song.

Heres the Horn Part:

-------------1----|
-------1-3-4--4-3-|
-0-2-3------------|
------------------|
------------------|
------------------|

Then the solo section goes like this

---------------------------------|
---------------------------------|
---------------------------------|
-3-3-3-3-3-3-3-3-2-2-2-2-2-2-2-2-|
-3-3-3-3-3-3-3-3-2-2-2-2-2-2-2-2-|
-1-1-1-1-1-1-1-1-0-0-0-0-0-0-0-0-|

just repeat it.

I'll have more on the solo later, Thanks!
Tap to rate this tab
 
# A B C D E F G H I J K L M N O P Q R S T U V W X Y Z