Song name
# A B C D E F G H I J K L M N O P Q R S T U V W X Y Z

Misc Unsigned Bands - Drain - Right Through You tab

Song: Right through you
 Artist: Drain STH
 Album: Freaks of nature
 Written: Sjöholm/Martin
 

     Guitar intro fig.A

 D-||-----------------|----------------||
 A-||-----------------|----------------||
 F-||*-----7------7---|-----7---------*||
 C-||*-7-------7------|-7-------7-----*||
 G-||-----------------|----------------||
 D-||-----------------|----------------||

     Bass intro fig.A
       C  G#   F  Bb     C  G#   C  G#   F      Bb B
 F-||--------|--------||-------|-------|------|-------||
 C-||*-------|-------*||-------|-------|------|-------||
 G-||*-5-----|----3--*||-5-----|-5-----|------|-3--4--||
 D-||-----6--|-3------||----6--|----6--|-3----|-------||

     The intro synth. part

 D-||--------------------------------------------||
 A-||-10---11---10---6---3---6---8---3---6---8---||
 F-||--------------------------------------------||
 C-||--------------------------------------------||
 G-||--------------------------------------------||
 D-||--------------------------------------------||

     Verse (Bass) Bass Fig.1
       C   G#    F   Bb     C   G#    D   G
                                      1st time
 F-||----------|----------|---------|----------||     
 C-||*---------|----------|---------|---------*||
 G-||*-5-------|-----3----|-5-------|---------*||
 D-||------6---|-3--------|-----6---|-0---5-5--||
       D  G  F    D#  D
      2nd time
 F--|----------|----------||
 C--|----------|----------||
 G--|----------|----------||
 D--|--0--5--3-|--1---0---||


      Verse (Guitar) Gtr.Fig.1
       C       G#       F      Bb        C       G#
 D-||-----------------|---------------|------------------|
 A-||-----------------|---------------|------------------|
 F-||*-----7------7---|-----7---------|------7------7----|
 C-||*-7-------7------|--7-----7------|--7-------7-------|
 G-||-----------------|---------------|------------------|
 D-||-----------------|---------------|------------------|







       D       G               D       G   F       D#  D
      1st time                2nd time
 D--|-----------------|| D--|------------------|-----------||
 A--|-----------------|| A--|------------------|-----------||
 F--|------7---------*|| F--|------7---2-------|-----------||
 C--|--6-------7-----*|| C--|--6-------2---5---|---3---2---||
 G--|-----------------|| G--|----------0---5---|---3---2---||
 D--|-----------------|| D--|--------------3---|---1---0---||


     Chorus riff (Guitar) Gtr.Fig.2

      C   G#      C   G#      F           Bb   B     
 D-||-----------|-----------|-----------|-----------|
 A-||-----------|-----------|-----------|-----------|
 F-||-7---------|-7---------|-----------|-5----6----|
 C-||-7---------|-7---------|-5---(5)---|-5----6----|
 G-||-5----8----|-5----8----|-5---(5)---|-3----4----|
 D-||------6----|------6----|-3---(3)---|-----------|

      C    G#     C    G#     D           G   F   D# D
 D--|-----------|-----------|-----------|-------------||
 A--|-----------|-----------|-----------|-------------||
 F--|-7---------|-7---------|-----------|-2-----------||
 C--|-7---------|-7---------|-2----2----|-2-----------||
 G--|-5----8----|-5----8----|-2----2----|-0---5---3-2-||
 D--|------6----|------6----|-0----0----|-----3---1-0-||

     Chorus riff (Bass) Bass Fig.2

 F-||-----------|-----------|-----------|-----------|
 C-||-----------|-----------|-----------|-----------|
 G-||-5---------|-5---------|-----------|-3----4----|
 D-||------6----|------6----|-3---(3)---|-----------|

 F--|-----------|-----------|-----------|-------------||
 C--|-----------|-----------|-----------|-------------||
 G--|-5---------|-5---------|-----------|-0-----------||
 C--|------6----|------6----|-0----0----|-----3---1-0-||


     Bridge Riff   Gtr.Fig.3/Bass Fig.3

       G    F        D#   D
 F-||--2----------|-----------------||
 C-||*-2----5-----|--3----2--------*||
 G-||*-0----5-----|--3----2--------*||
 D-||-------3-----|--1----0---------||

     (Fine)
       G    F    D#   D     C (slight echo repeats) Fine
 D-||---------------------|------------||
 A-||---------------------|------------||
 F-||--2------------------|------------||
 C-||--2----5----3----2---|-7\---------||
 G-||--0----5----3----2---|-5\---------||
 D-||-------3----1----0---|------------||




 Intro: 
 Gtr.Fig.A  4 times
 Bass Fig.A 1 time
 Verse1:
 Gtr.Fig.1  2 times
 Bass Fig.1 2 times
 Chorus1: 
 Gtr.Fig.2  1 time
 Bass Fig.2 1 time
 Verse2:
 Gtr.Fig.1  2 times
 Bass Fig.1 2 times
 Chorus2:
 Gtr.Fig.2  1 time +bars 5,6 and 7
 Bass Fig.2 1 time +bars 5,6 and 7 
 Bridge:
 Gtr.Fig.3  3 times
 Bass Fig.3 3 times
 Verse3:
 Gtr.Fig.1  1 time + one bar break
 Bass Fig.1 1 time + one bar break
 Chorus3:
 Gtr.Fig.2  2 times and fine
 Bass Fig.2 2 times and fine

Tap to rate this tab
 
# A B C D E F G H I J K L M N O P Q R S T U V W X Y Z