Guitaretab - guitar tabs
Song name
# A B C D E F G H I J K L M N O P Q R S T U V W X Y Z

Misc Unsigned Bands - Second Sike - Saving All For You tab

This was the second song the band made up.
Tune your 6th string (top string) down to C
and 5th string down to G

x- fingers across fret 1 lightly
INTRO (slow)
E/-------------------------------------------------------|
B/-------------------------------------------------------|
G/-----------------------------------------------x-x-x-x-|
D/-----------------------------------------------x-x-x-x-|
G/---0-----0---------0-0---------0-----x-x-x-x-x-x-x-x-x-|
C/0-3-3-0-3-3-0-0-3-3----3-3-0-3---3-3-x-x-x-x-x-x-x-x-x-|

VERSE
E/--------------------------------------------------------------------------|
B/--------------------------------------------------------------------------|
G/--------------------------------------------------------------------------|
D/------------------------------------1-3-5---------------------------------|
G/7-x-x-3-x-x-7-x-x-3-x-x-7-x-x-3-x-x-1-3-5---------------------------------|
C/7-x-x-3-x-x-7-x-x-3-x-x-7-x-x-3-x-x-------7-x-x-3-x-x-7-x-x-3-x-x-7-x-x-3-|

E/-------|
B/-------|
G/-------|
D/-7-5-3-|
G/-7-5-3-|
C/-------|

PRE-CHORUS
E/-----------------------------------------------------------------|
B/-----------------------------------------------------------------|
G/-----------------------------------------------------------------|
D/----------------------------2-2-2-2-2-2-2-2-3-3-3-3-3-3-3-3------|     X2
G/---------------------1-2-1-2-------------------------------------|
C/-000-1-00-1-000-1-00-1-2-1-2-------------------------------------|

CHORUS
E/-------------------------------------|
B/-------------------------------------|
G/3-33333-7-77777-5-55555-0-00000------|
D/3-33333-7-77777-5-55555-0-00000------|     X2
G/1-11111-5-55555-3-33333-0-00000------|
C/-------------------------------------|

E/-----------------|
B/-----------------|
G/3-5-7-7-5-3------|
D/3-5-7-7-5-3------|     X4
G/1-3-5-5-3-1------|
C/-----------------|

VERSE
PRE-CHORUS
CHORUS

BRIDGE

E/---------------------------------------------------------------------------|
B/---------------------------------------------------------------------------|
G/---------------------------------------------------------------------------|
D/-------------------------------0-3-5-0-3-6-0-3-5-0-3-6-0-3-5-0-3-66666666--|
G/---------------------------------------------------------------------------|
C/5-7-5-8-5-7-5-8-5-7-5-8-5-7-5-8--------------------------------------------|
[ Tab from: http://www.guitaretab.com/m/misc-unsigned-bands/111410.html ]
E/----------------------------------------------------------------------|
B/----------------------------------------------------------------------|
G/----------------------------------------------------------------------|
D/----------------------------------------------------------------------|
G/-------------------------------0-7-9-0-7-10-0-7-9-0-7-10-0-7-9-0-7-10-|
C/5-7-5-8-5-7-5-8-5-7-5-8-5-7-5-8---------------------------------------|

E/------------------------------------------|
B/------------------------------------------|
G/---------------------------------------9--|B
D/------------------------------------------|
G/10101010101010777777779999999966666666----|
C/------------------------------------------|

SOLO

E/---------------------------------------------------------------------------------------|
B/12p14----12p14----12p14----12p14---12p15---12p15----12p15---12p15---15p14p12-15p14p12--|
G/------13-------13-------13-------13------14-------14------14-----14--------------------|
D/---------------------------------------------------------------------------------------|
G/---------------------------------------------------------------------------------------|
C/---------------------------------------------------------------------------------------|

E/------14------14-15H17H18-15H17H18-17P15---17P15---17P15---17P15------|
B/17P15---17P15---------------------------13------13------13------13----|
G/-------------------------------------------------------------------9--|B
D/----------------------------------------------------------------------|
G/----------------------------------------------------------------------|
C/----------------------------------------------------------------------|

PRE-CHORUS
E/-----------------------------------------------------------------|
B/-----------------------------------------------------------------|
G/-----------------------------------------------------------------|
D/----------------------------2-2-2-2-2-2-2-2-3-3-3-3-3-3-3-3------|     X2
G/---------------------1-2-1-2-------------------------------------|
C/-000-1-00-1-000-1-00-1-2-1-2-------------------------------------|

CHORUS
E/-------------------------------------|
B/-------------------------------------|
G/3-33333-7-77777-5-55555-0-00000------|
D/3-33333-7-77777-5-55555-0-00000------|     X2
G/1-11111-5-55555-3-33333-0-00000------|
C/-------------------------------------|

E/-----------------|
B/-----------------|
G/3-5-7-7-5-3------|
D/3-5-7-7-5-3------|     X4
G/1-3-5-5-3-1------|
C/-----------------|

OUTRO/VERSE

E/-------|
B/-------|
G/-------|
D/-------|
G/7-x-x-3
C/7-x-x-3
Related for Second Sike - Saving All For You tab
×
Second Sike - Saving All For You