Guitaretab - guitar tabs
Song name
# A B C D E F G H I J K L M N O P Q R S T U V W X Y Z

Misc Unsigned Bands - Logan Reynolds - You Knew When I Knew tab

Title: You Knew When I Knew 
Artist: Logan Reynolds

Tuning: Standard

E||-------------------------------|--------------------------------|
B||--0-0-0-0-0-0-0-0-0-0-0-0-0-0--|--0-0-0-0-0-0-0-0-0-0-0-0-0-0---|
G||-------------------------------|--------------------------------|
D||-------------------------------|--------------------------------|
A||-7-7-7-7-6-6-6-6-4-4-4-4-6-6-66|-7-7-7-7-6-6-6-6-4-4-4-4-6-6-66-|
E||-------------------------------|--------------------------------|
[ Tab from: http://www.guitaretab.com/m/misc-unsigned-bands/111412.html ]
E||----------------------------------------------------------------|
B||----------------------------------------------------------------|
G||----------------------------------------------------------------|
D||----------------------------------------------------------------|
A||-7--7--7--77--6--6--6--66--4--4--4--44-6--6--6--667h-----------|
E||----------------------------------------------------------------|

E||-------------------------------|--------------------------------|
B||--0-0-0-0-0-0-0-0-0-0-0-0-0-0--|--0-0-0-0-0-0-0-0-0-0-0-0-0-0---|
G||-------------------------------|--------------------------------|
D||-------------------------------|--------------------------------|
A||-7-7-7-7-6-6-6-6-4-4-4-4-6-6-66|-7-7-7-7-6-6-6-6-4-4-4-4-6-6-66-|
E||-------------------------------|--------------------------------|

E||----------0|
B||--0-0-0-0--|
G||-----------|
D||-----------|
A||-7-7-7-7---|
E||-----------|

Related for Logan Reynolds - You Knew When I Knew tab