Song name
# A B C D E F G H I J K L M N O P Q R S T U V W X Y Z

Misc Unsigned Bands - Pop The Metal - Fire tab

/ = Slide
B = Bend
H = Hammer On
P = Power Off

|--0--0--15---------------------------------------------------------------|
 |---------------0--0--14-------------------------------------------------|
 |--------------------------0--0--13--------------------------------------|
 |-------------------------------------0--0--12---------------------------|
 |------------------------------------------------0--0--11----------------|
|------------------------------------------------------------0--0--10/6---|

|----------------------------------------------------------------------------|
|-----------------5/6/8--6/8/9--8/9/11--9b11p9--8h9p8--6h8p6--4h6p4--2-1/13--|
|-6/5/3--5--6----------------------------------------------------------------|
|----------------------------------------------------------------------------|
|----------------------------------------------------------------------------|
|----------------------------------------------------------------------------|
Tap to rate this tab
 
# A B C D E F G H I J K L M N O P Q R S T U V W X Y Z