Song name
# A B C D E F G H I J K L M N O P Q R S T U V W X Y Z

Misc Unsigned Bands - Avondale45 - This Songs For You tab

-------------------------------------------------------------------------------
     SONG NAME-this songs for - Band Name-avondale45
-------------------------------------------------------------------------------
Tabbed by:
Email:

Tuning:


   intro
e|---------------------------------------------------------------------------|
B|---------------------------------------------------------------------------|
G|---------------------------------------------------------------------------|
D|---------------------------------------------------------------------------|
A|------5---3---5---------5---3---5-------5---3---5--------5---3---5--(x5)---|
E|-3-----------------3----------------3----------------3---------------------|

   main riff/chorus
e|--------------------------------------------------------------------------|
B|-------------------------------------------------------------(x2)---------|
G|-----------------------3--------------------------------------------------|
D|------------3----5---------3---1---3-----------3---1---0------------------|
A|-------5----------------------------------1--------------------3---1---0--|
E|--3--------------------------------------------------------1--------------|

   verse
e|---------------------------------------------------------------------------|
B|---------------------------------------------------------------------------|
G|---------------------------------------------------------------------------|
D|--5-5-5-5-8-8-8-8-8-8-8-8-3-3-3-3------------------------------------------|
A|--5-5-5-5-6-6-6-6-8-8-8-8-3-3-3-3------------------------------------------|
E|--3-3-3-3---------6-6-6-6-1-1-1-1------------------------------------------|
  bridge
e|---------------------------------------------------------------------------|
B|---------------------------------------------------------------------------|
G|---------------------------------------------------------------------------|
D|----------8^---------------------------------------------------------------|
A|----5--6--------8-----3--1--0-------------------(x4)-----------------------|
E|-3-----------6-----1-------------------------------------------------------|


| /  slide up
| \  slide down
| h  hammer-on
| p  pull-off
| ~  vibrato
| +  harmonic
| x  Mute note
===============================================================================
Tap to rate this tab
 
# A B C D E F G H I J K L M N O P Q R S T U V W X Y Z