Song name
# A B C D E F G H I J K L M N O P Q R S T U V W X Y Z

Misc Unsigned Bands - Shore - Catching Waves tab

e---0-----4----5-----7------12-----0---------|
B--------------------------------------------|
G--------------------------------------------|
D--------------------------------------------|
A--------------------------------------------|
E---0-----4----5-----7------12-----0---------|

e-------------------------7p5p4p0--12--12----|
B--------------------------------------------|
G--------------------------------------------|
D--------------------------------------------|
A--------------------------------------------|
E---7p5p4p0--12--12--------------------------|

   E
e--0------------------------------------------|
B--0------------------------------------------|
G--1------------------------------------------|
D--2------------------------------------------|
A--2------------------------------------------|
E--0------------------------------------------|
Tap to rate this tab
# A B C D E F G H I J K L M N O P Q R S T U V W X Y Z