Song name
# A B C D E F G H I J K L M N O P Q R S T U V W X Y Z

Misc Unsigned Bands - Shore - Sunny Hours tab

e--------------------5--5---5---7-------------|
B---------------------------------------------|
G----------------------------------------4----|
D--------------------------------------5------|
A--------4-----7------------------------------|
E------5----5-----------5---5---7-------------|


e----------------------------------12-15--0---|
B------------------------14---14----------2---|
G---5-----4------7---4--------------------2---|
D-5----5------5------5--------------------2---|
A-----------------------------------------4---|
E-----------------------------------------0---|
Tap to rate this tab
 
# A B C D E F G H I J K L M N O P Q R S T U V W X Y Z