Song name
# A B C D E F G H I J K L M N O P Q R S T U V W X Y Z

Misc Unsigned Bands - Shore - Pearl Diving tab

e--0----------2---------0---------5----------|
B--0----------0---------0------2--2--2-------|
G--1----------2---------1------2--2--2-------|
D--2---x4-----1----x4---2------2--2--2-------|
A--2----------2---------2------4--4--4-------|
E--0----------0---------0--------------------|
          Verse and Chorus


e----------7----10--7h10p7--10/12-------------|
B-------x---------------------------14--12-14-|
G-----x-----------------------------14--12-14-|
D-----------------------------------14--12-14-|
A-------rake----------------------------------|
E---------------------------------------------|
             Solo

e--8-8-8-5-----------------------------------|
B----------8-5-------------5-----------------|
G--------------7-8-7---5---5-----------------|
D--------------------------5-----------------|
A--------------------------3-----------------|
E--------------------------------------------|
               Outro
Tap to rate this tab
# A B C D E F G H I J K L M N O P Q R S T U V W X Y Z