Song name
# A B C D E F G H I J K L M N O P Q R S T U V W X Y Z

Misc Unsigned Bands - Neon Glow - New York tab

                     THIS IS JUST THE INTRO AND 1ST 3 VERSES
intro:
   E|-------------------------------------------------------|
   B|--------10----------10---------9------------9----------|
   G|-----9-----9-----9-----9----9-----9------9-----9-------|
   D|--11----------11----------7-----------7----------------|
   A|-------------------------------------------------------|
   E|-------------------------------------------------------|x1

verse 1:  
   E|-------------------------------------------------------|
   B|--------10----------10---------9------------9----------|
   G|-----9-----9-----9-----9----9-----9------9-----9-------|
   D|--11----------11----------7-----------7----------------|
   A|-------------------------------------------------------|
   E|-------------------------------------------------------|x2

   E|-------------------------------------------------------|
   B|-------9----------9----------7-----------7-------------|
   G|----9-----9----9-----9-----9----9-----9-----9----------|
   D|-11---------11----------7----------7-------------------|
   A|-------------------------------------------------------|
   E|-------------------------------------------------------|x1

verses 2 and 3:
   E|-------------------------------------------------------|
   B|--------10----------10---------9------------9----------|
   G|-----9-----9-----9-----9----9-----9------9-----9-------|
   D|--11----------11----------7-----------7----------------|
   A|-------------------------------------------------------|
   E|-------------------------------------------------------|x1       

   E|-------------------------------------------------------|
   B|-------9----------9-----------7----------7-------------|
   G|----9-----9----9-----9-----9----9-----9-----9----------|
   D|-11---------11----------7----------7-------------------|
   A|-------------------------------------------------------|
   E|-------------------------------------------------------|x1
Tap to rate this tab
 
# A B C D E F G H I J K L M N O P Q R S T U V W X Y Z