Song name
# A B C D E F G H I J K L M N O P Q R S T U V W X Y Z

Misc Unsigned Bands - Vredesfaust - Principles Of The Perverse tab

Band: Vredesfaust
Song: Principles of the Perverse
Tuning: Eb

   Am     Fm
[---0---------1-----------]
[----1---------1----------]
[--2--2------1------------]
[--2---2----3-------------]  x4
[-0--------3--------------]
[---------1---------------]
 Am      Fm          Am    Fm  C#m
[--5---5----8--8--8---5--5-1-1-4-4--]
[--5---5----9--8--9---5--5-1-1-4-4--]
[--5---5-10-10-10-10--5--5-1-1-4-4--]
[-7--7---10-10-10-10-7--7--3-3-6-6--]  x2
[-7--7---8-----------7--7--3---6----]
[-5--5---------------5--5--1---4----]

[----------------------------------------]
[----------------------------------------]
[----------------------------------------]
[----------------------------------------] x 4
[-----7/10/7--------------7/10/7---------]
[-0-0--------8-8-7-11-0-0--------8-8-7-4-]
  Am     Fm          Am    Fm  C#m
[--5---5----8--8--8---5--5-1-1-4-4--]
[--5---5----9--8--9---5--5-1-1-4-4--]
[--5---5-10-10-10-10--5--5-1-1-4-4--]
[-7--7---10-10-10-10-7--7--3-3-6-6--]  x2
[-7--7---8-----------7--7--3---6----]
[-5--5---------------5--5--1---4----]


 Am     Fm
[---0---------1-----------]
[----1---------1----------]
[--2--2------1------------]
[--2---2----3-------------]  x4
[-0--------3--------------]
[---------1---------------]      
(then after that hit an Am and let it ring out)


Lyrics:
Choke on my cock you fucking whore
Anal penetration is what you adore
Swallow my cum you filthy slut
I enjoy raping you, so what?

I'll rip your cunt, you'll hear it tear
You scream and cry, "It's not fare"
But my sick and twisted, perverse mind
Will show you what I'm here to find

Obsessed with rape and sodomy
You love the pain, I love your screams
I don't care how much it hurts
These are the Principles of the Perverse

This tab is being submitted by Wrath, the singer/ Guitarist of Vredesfaust

Thank you, 
and hope to hear from more listeners
look us up on myspace under Vredesfaust

Tap to rate this tab
# A B C D E F G H I J K L M N O P Q R S T U V W X Y Z