Song name
# A B C D E F G H I J K L M N O P Q R S T U V W X Y Z

Misc Unsigned Bands - Pure Pwnage - Teh N00b Song tab

Help us improve GuitareTab! Take a short survey!
I think this is right..

Chords: C A F C

Intro and Verses:
              C
e--x----------0-0---0-0---0-0-------|
B--x----------1-1---1-1---1-1-------|
G--x----------0-0---0-0---0-0-------|
D--x----------2-2---2-2---2-2-------|
A--x---0-2--3-----------3-------0-2-|
E--x--3-----------3-----------3-----|

e----0-0----0-0-----0-0---------|
B----1-1----1-1-----1-1---------|
G----0-0----0-0-----0-0---------|
D----2-2----2-2-----2-2---------|
A-3---------------3-------3-2-1-|
E---------3---------------------|

    A
e---0-0---0-0---0-0---0-0----|
B---2-2---2-2---2-2---2-2----|
G---2-2---2-2---2-2---2-2----|
D---2-2---2-2---2-2---2-2----|
A-0------------0-------------|
E--------0------------0------|

     F
e----1-1----1-1-----1-1----1-1--|
B----1-1----1-1-----1-1----1-1--|
G----2-2----2-2-----2-2----2-2--|
D-3---------------3-------------|
A---------3----------------3----|
E-------------------------------|

e----1-1----1-1-----1-1----1-1--|
B----1-1----1-1-----1-1----1-1--|
G----2-2----2-2-----2-2----2-2--|
D-3---------------3-------------|
A---------3----------------3----|
E-------------------------------|

     C
e----0-0----0-0-----0-0----------|
B----1-1----1-1-----1-1----------|
G----0-0----0-0-----0-0----------|
D----2-2----2-2-----2-2----------|
A-3---------------3----------0-2-|
E---------3----------------3-----|

e----0-0----0-0-----0-0----------|
B----1-1----1-1-----1-1----------|
G----0-0----0-0-----0-0----------|
D----2-2----2-2-----2-2----------|
A-3---------------3-------3-2-1--|
E---------3----------------------|

    A
e---0-0---0-0---0-0------------|
B---2-2---2-2---2-2------------|
G---2-2---2-2---2-2------------|
D---2-2---2-2---2-2------------|
A-0------------0--------0-2----|
E--------0------------3--------|

And back to C
Related for Pure Pwnage - Teh N00b Song tab