Song name
# A B C D E F G H I J K L M N O P Q R S T U V W X Y Z

Misc Unsigned Bands - Internal Damage - The Last Prisoners tab

this is a good, fast song, and mixes new rock/metal rythems  with classic rock
power chords, it is also a quite easy song!
h=harmonic
H=hammer on
b=half bend
r=release
160= ---------------------------------------------------------------| 
--------------------------------------------------------------------|
--------------------------------------------------------------------|
--------------------------------------------------------------------|
--------------------------------------------------------------------|
-------------15-14-12H14--------------------------------------------|
12-12-12-12------------12-12-12-12-15-14-12H14-12-12-12-12-3-2-0H2--|
h  h  h  h              h  h  h  h              h  h  h  h
= 1beat (very fast) and high distortion (not super high, you might have to tweak
around until you find the right setting)

-------------------    ------------------    ------------------------|
-------------------    ------------------    ------------------------|
-------------------    9-9--5-5--7-7--4-4    ----9-----5-----7-----4-|
------------------- x3 9-9--5-5--7-7--4-4 x3 --9-----5-----7-----4---|x2
------------3-2-0--    7-7--3-3--5-5--2-2    7-----3-----5-----2-----|
12-12-12-12--------    ------------------    ------------------------|
 h  h  h  h

------------------------------------------------------------|
------------------------------------------------------------|
----9-----5-----7-----4-----4-----4-------------------------|
--9-----5-----7-----4-----2-----2---------------------------|
7-----3-----5-----2-----2-----2-----------------15-14-12H14-|
-------------------------------------12-12-12-12------------|
                                      h  h  h  h

---------------------------------------------------------------------|
---------------------------------------------------------16-15-13H15-|
----------------------------------15-14-12H14-12-12-12-12------------|
-----------15-14-12H14-12-12-12-12-----------------------------------|
12-12-12-12----------------------------------------------------------|
---------------------------------------------------------------------|
 h  h  h  h             h  h  h  h             h  h  h  h

------------16-15-13H15b~~--:
13-13-13-13-----------------:
----------------------------:
----------------------------:
----------------------------:
----------------------------:

---------------------------------------------------------------------|
---------------------------------------------------------------------|
---------------------------------------------------------------------|
---------------------------------------------------------------------|
-------------15-14-12H14---------------------------------------------|
12-12-12-12------------12-12-12-12-15-14-12H14-12-12-12-12-3-2-0H2---|
h  h  h  h              h  h  h  h              h  h  h  h

-------------------   -------------------------------------------|
-------------------   -------------------------------------------|
-------------------   999---5--7----------------------999---5--7-|
-------------------x2 999---5--7--9-9-9-9-9-9-9-9-9-9-999---5--7-|
------------3-2-0--   777---3--5--7-7-7-7-7-7-7-7-7-7-777---3--5-|
12-12-12-12--------   -------------------------------------------|
 h  h  h  h
----------------------   ----------------------------------------------|
----------------------   ----------------------------------------------|
----------------------x2 ----------------------------------15-14-12H14-|
--4-4-4-4-4-4-4-4-4-4-   -----------15-14-12H14-12-12-12-12------------|
--2-2-2-2-2-2-2-2-2-2-   12-12-12-12-----------------------------------|
                          h  h  h  h             h  h  h  h

----------------------------------------------------------16-15-13H15br-|
-----------------------------------16-15-13H15-13-13-13-13--------------|
------------15-14-12H14-12-12-12-12-------------------------------------|
-12-12-12-12------------------------------------------------------------|
------------------------------------------------------------------------|
------------------------------------------------------------------------|
 h   h  h  h             h  h  h  h             h  h  h  h
Internal Damage is my band and I know this is how its played, I hope you guys have as
fun playing it as i do. yet i mispelt the band on the last one, so im resubmiting
it, they are both mine and same songs! enjoy
Tap to rate this tab
 
# A B C D E F G H I J K L M N O P Q R S T U V W X Y Z