Guitaretab - guitar tabs
Song name
# A B C D E F G H I J K L M N O P Q R S T U V W X Y Z

Misc Unsigned Bands - Plans For An Exit - Enterlude tab

Song:  Enterlude (Rhythm)
Artist:  Plans for An Exit
Tabbed By: Aaron Dethrage
Tuning: Drop D

Riff One 8xs (Roll the quarter note octaves a little)
---------------------------------------------------------------------------10-|
-15-15-15-15--18/17/15/13-------13----10-10-10-10--------10-------------------|
--x--x--x--x---------------------------x--x--x--x-----------12-12-12p10-------|
-12-12-12-12--15/14/12/10-10-10----10--7--7--7--7--10h12----------------12----|
------------------------------------------------------------------------------|
------------------------------------------------------------------------------|
[ Tab from: http://www.guitaretab.com/m/misc-unsigned-bands/111560.html ]
Riff Two 4xs (with different endings)
-------------------------------------------------------------|
-------------------------------------------------------------|
-7-7-7-7-7-7-7-7-9-9-9-9-10-10-10-10-12-12-12-12-12-12-12-12-|
-x-x-x-x-x-x-x-x-x-x-x-x--x--x--x--x--x--x--x--x--x--x--x--x-|
-5-5-5-5-5-5-5-5-7-7-7-7--8--8--8--8-10-10-10-10-10-10-10-10-|
-------------------------------------------------------------|

1.3					                      2.			4.
-------------------------    -----------        -------|
-------------------13s15-    -----------        -------|
-14-14-------14-14--x--x-    -7-(dive--- -14~~---------|
--x--x-12-12--x--x-10s12-    -x---bomb)-        --x----|
-12-12--x--x-12-12-------    -5---------        -12~~--|
-------12-12-------------    -----------        -------|
Related for Plans For An Exit - Enterlude tab