Guitaretab - guitar tabs
Song name
# A B C D E F G H I J K L M N O P Q R S T U V W X Y Z

Misc Unsigned Bands - Plans For An Exit - Sixth Story Jumper tab

Song: Sixth Story Jumper (Rhythm)
Artist: Plans for an Exit
Tabbed By: Aaron Dethrage
Tuning: Drop D


Intro/Chorus Riff
-------------------------------------------------------|
-------------------------------------------------------|
-10-10-10-9-9-9-10-10-10-9-9-9-------10s12-14s12-12s14-|
--7--7--7-7-7-7--7--7--7-7-7-7-10s12-------------------|  2xs
--5--5--5-5-5-5--5--5--5-5-5-5--------8s10-12s10-10s12-|
-------------------------------10s12-------------------|

-------------------------------------------------|
-------------------------------------------------|
-------------10s12-12s14-------------12s14-14s15-|
-12-12-12-12-------------14-14-14-14-------------|
-10-10-10-10--8s10-10s12-12-12-12-12-10s12-12s13-|
-10-10-10-10-------------12-12-12-12-------------|

-------------------------------------------------------|
-------------------------------------------------------|
-10-10-10-9-9-9-10-10-10-9-9-9-------10s12-14s12-12s14-|
--7--7--7-7-7-7--7--7--7-7-7-7-10s12-------------------|  2xs
--5--5--5-5-5-5--5--5--5-5-5-5--------8s10-12s10-10s12-|
-------------------------------10s12-------------------|

---------------------------------------------------------|
---------------------------------------------------------|
-------------10s12-12s14-------------12s14-14s15---------|
-12-12-12-12-------------14-14-14-14--------------0~~(0)-|
-10-10-10-10--8s10-10s12-12-12-12-12-10s12-12s13--0~~(0)-|
-10-10-10-10-------------12-12-12-12--------------0~~(0)-|

Verse 1 (Play Two Times)
-----------------------5-5-5-5-5-5-5-5-5-5-5-5---------|
-----------------------6-6-6-5-5-5-6-6-6-5-5-5-----6p5-|
-10--9-9-9-9-9-9p7-----7-7-7-7-7-7-7-7-7-7-7-7-7p5-7p5-|
--0----------------5h7---------------------------------|
--0----------------------------------------------------|
--0----------------------------------------------------|

----------------------5---------|
-5-x-x-5--------5-x-x---6p5-----|
-5-x-x-5---5h7--5-x-x---------7-|
-7-x-x-7-7------7-x-x-------7---|
-5-x-x-5--------5-x-x-----------|
--------------------------------|

-----------------------10-10-10-10-10-10-10-10-10-10-10-10-------------|
-----------------------11-11-11-10-10-10-11-11-11-10-10-10-------------|
-10--9-9-9-9-9-9p7-----12-12-12-12-12-12-12-12-12-12-12-12-------10p-9-|
--0----------------5h7-------------------------------------12p10-12p10-|
--0--------------------------------------------------------------------|
--0--------------------------------------------------------------------|

----------------------10-------13h15-|
-5-x-x-5--------5-x-x----11p10-------|
-5-x-x-5---5h7--5-x-x----------------|
-7-x-x-7-7------7-x-x----------------|
-5-x-x-5--------5-x-x----------------|
-------------------------------------|

Pre-Chorus
--------------------------------------------------------------------------------|
---------------------10-10----10-10----13p12------------------------------------|
-7-7-10-10-9-9-12-12-------12-------12---------------12-12-12-------14-14-14-14-| 3xs
-x-x--x--x-x-x--x--x-------------------------12\-x-0----------12\-x--x--x--x--x-|
-5-5--8--8-7-7-10-10--------------------------x\-x-0-----------x\-x-12-12-12-12-|
---------------------------------------------12\-x-0----------12\-x-------------|

----------------------------------------------------------|
---------------------10-10----10-10----13p12--------------|
-7-7-10-10-9-9-12-12-------12-------12--------------------|
-x-x--x--x-x-x--x--x-------------------------0~-(0)-(0)-0-|
-5-5--8--8-7-7-10-10-------------------------0~-(0)-(0)-0-|
---------------------------------------------0~-(0)-(0)-0-|

Chorus
-------------------------------------------------------|
-------------------------------------------------------|
-10-10-10-9-9-9-10-10-10-9-9-9-------10s12-14s12-12s14-|
--7--7--7-7-7-7--7--7--7-7-7-7-10s12-------------------|  2xs
--5--5--5-5-5-5--5--5--5-5-5-5--------8s10-12s10-10s12-|
-------------------------------10s12-------------------|

---------------------------------------------------------------------|
---------------------------------------------------------------------|
-------------10s12-12s14-------------12s14-14s15-19-19-17-19-x-x-x-x-|
-12-12-12-12-------------14-14-14-14--------------x--x--x--x-x-x-x-x-|
-10-10-10-10--8s10-10s12-12-12-12-12-10s12-12s13-17-17-15-17-x-x-x-x-|
-10-10-10-10-------------12-12-12-12---------------------------------|

Verse 2
----------5-5-5-5-5-5-5-5-5-5-5-5---------|
----------6-6-6-5-5-5-6-6-6-5-5-5-----6p5-|
-10-------7-7-7-7-7-7-7-7-7-7-7-7-7p5-7p5-|
--0---------------------------------------|
--0---------------------------------------|
--0---------------------------------------|

----------------------5---------|
-5-x-x-5--------5-x-x---6p5-----|
-5-x-x-5---5h7--5-x-x---------7-|
-7-x-x-7-7------7-x-x-------7---|
-5-x-x-5--------5-x-x-----------|
--------------------------------|

----------------------------------------------------------|
----------------------------------------------------------|
-10-9-9-9-9-9-9p7-----------------------------------------|
--0---------------5h7-0-0-0-0-0-0-0-0-12-12-12-12-12\-x-x-|
--0-------------------0-0-0-0-0-0-0-0-12-12-12-12-12\-x-x-|
--0-------------------0-0-0-0-0-0-0-0-12-12-12-12-12\-x-x-|
[ Tab from: http://www.guitaretab.com/m/misc-unsigned-bands/111561.html ]
Pre-Chorus
--------------------------------------------------------------------------------|
---------------------10-10----10-10----13p12------------------------------------|
-7-7-10-10-9-9-12-12-------12-------12---------------12-12-12-------14-14-14-14-| 3xs
-x-x--x--x-x-x--x--x-------------------------12\-x-0----------12\-x--x--x--x--x-|
-5-5--8--8-7-7-10-10--------------------------x\-x-0-----------x\-x-12-12-12-12-|
---------------------------------------------12\-x-0----------12\-x-------------|

----------------------------------------------------------|
---------------------10-10----10-10----13p12--------------|
-7-7-10-10-9-9-12-12-------12-------12--------------------|
-x-x--x--x-x-x--x--x-------------------------0~-(0)-(0)-0-|
-5-5--8--8-7-7-10-10-------------------------0~-(0)-(0)-0-|
---------------------------------------------0~-(0)-(0)-0-|

Chorus
-------------------------------------------------------|
-------------------------------------------------------|
-10-10-10-9-9-9-10-10-10-9-9-9-------10s12-14s12-12s14-|
--7--7--7-7-7-7--7--7--7-7-7-7-10s12-------------------|  2xs
--5--5--5-5-5-5--5--5--5-5-5-5--------8s10-12s10-10s12-|
-------------------------------10s12-------------------|

---------------------------------------------------------------------|
---------------------------------------------------------------------|
-------------10s12-12s14-------------12s14-14s15-19-19-17-19-x-x-x-x-|
-12-12-12-12-------------14-14-14-14--------------x--x--x--x-x-x-x-x-|
-10-10-10-10--8s10-10s12-12-12-12-12-10s12-12s13-17-17-15-17-x-x-x-x-|
-10-10-10-10-------------12-12-12-12---------------------------------|

-------------------------------------------------------|
-------------------------------------------------------|
-10-10-10-9-9-9-10-10-10-9-9-9-------10s12-14s12-12s14-|
--7--7--7-7-7-7--7--7--7-7-7-7-10s12-------------------|  2xs
--5--5--5-5-5-5--5--5--5-5-5-5--------8s10-12s10-10s12-|
-------------------------------10s12-------------------|

-------------------------------------------------|
-------------------------------------------------|
-------------10s12-12s14-------------12s14-14s15-|
-12-12-12-12-------------14-14-14-14-------------|
-10-10-10-10--8s10-10s12-12-12-12-12-10s12-12s13-|
-10-10-10-10-------------12-12-12-12-------------|

Guitar Break
-------------------------------------------------------|
-------------------------------------------------------|
-10-10-10-9-9-9-10-10-10-9-9-9-------10s12-14s12-12s14-|
--7--7--7-7-7-7--7--7--7-7-7-7-10s12-------------------|  2xs
--5--5--5-5-5-5--5--5--5-5-5-5--------8s10-12s10-10s12-|
-------------------------------10s12-------------------|

-------------------------------------------------|
-------------------------------------------------|
-------------10s12-12s14-------------12s14-14s15-|
-12-12-12-12-------------14-14-14-14-------------|
-10-10-10-10--8s10-10s12-12-12-12-12-10s12-12s13-|
-10-10-10-10-------------12-12-12-12-------------|

Bridge
---------------|
---------------|
---------------|
-0~----0~---0--|
-0~----0~---0--|
-0~----0~---0--|

-13-13-13-12-12-12-13-13-13-12-12-12-------------12-12-13h15-18-18-17-17-|
-------------------------------------13-13-15-15-------------------------|
-------------------------------------------------------------------------|
-------------------------------------------------------------------------|
-------------------------------------------------------------------------|
-------------------------------------------------------------------------|

-13-13-13-12-12-12-17-17-17-15-15-15-------------12-12-13h15-18-18-17-17-|
-------------------------------------13-13-15-15-------------------------|
-------------------------------------------------------------------------|
-------------------------------------------------------------------------|
-------------------------------------------------------------------------|
-------------------------------------------------------------------------|

-13-13-13-12-12-12-13-13-13-12-12-12-------------12-12-13h15-18-18-17-17-|
-------------------------------------13-13-15-15-------------------------|
-------------------------------------------------------------------------|
-------------------------------------------------------------------------|
-------------------------------------------------------------------------|
-------------------------------------------------------------------------|

-13-13-13-12-12-12-17-17-17-15-15-15------|
------------------------------------------|
-------------------------------------12b--|
------------------------------------------|
------------------------------------------|
------------------------------------------|

Chorus
-------------------------------------------------------|
-------------------------------------------------------|
-10-10-10-9-9-9-10-10-10-9-9-9-------10s12-14s12-12s14-|
--7--7--7-7-7-7--7--7--7-7-7-7-10s12-------------------|  2xs
--5--5--5-5-5-5--5--5--5-5-5-5--------8s10-12s10-10s12-|
-------------------------------10s12-------------------|

---------------------------------------------------------------------|
---------------------------------------------------------------------|
-------------10s12-12s14-------------12s14-14s15-19-19-17-19-x-x-x-x-|
-12-12-12-12-------------14-14-14-14--------------x--x--x--x-x-x-x-x-|
-10-10-10-10--8s10-10s12-12-12-12-12-10s12-12s13-17-17-15-17-x-x-x-x-|
-10-10-10-10-------------12-12-12-12---------------------------------|

-------------------------------------------------------|
-------------------------------------------------------|
-10-10-10-9-9-9-10-10-10-9-9-9-------10s12-14s12-12s14-|
--7--7--7-7-7-7--7--7--7-7-7-7-10s12-------------------|  2xs
--5--5--5-5-5-5--5--5--5-5-5-5--------8s10-12s10-10s12-|
-------------------------------10s12-------------------|

----------------------------------------------------|
----------------------------------------------------|
-------------10s12-12s14-------------12s14-14s15----|
-12-12-12-12-------------14-14-14-14-------------0--|
-10-10-10-10--8s10-10s12-12-12-12-12-10s12-12s13-0--|
-10-10-10-10-------------12-12-12-12-------------0--|
Related for Plans For An Exit - Sixth Story Jumper tab