Guitaretab - guitar tabs
Song name
# A B C D E F G H I J K L M N O P Q R S T U V W X Y Z

Misc Unsigned Bands - Plans For An Exit - Headlights And Nightlife tab

Song: Headlights and Nightlife
Artist: Plans for an Exit
Tabbed By: Aaron Dethrage
Standard Tuning

Intro
------------------------------------------------------------------------|
------------------------------------------------------------------------|
-----x-x-x-x----------10-12-------14-14-14-14-14-------16-14p9----------|
--7\-x-x-x-x-10h12p10-10-10----12----12-12-12-12----14------------10h12-|
--5\-x-x-x-x-12-------------10-------10-10-10-10-12------------12-------|
------------------------------------------------------------------------|

Verse
---------------------------------------------------------------------------------|
---------------------------------------------------------------------------------|
-x-9-x-9-x-9-x-9--9--9--9--9h10p9----------14-14-14-14-14-------16-14p9----------|
-x-7-x-7-x-7-x-7-10-10-10-10------------12----12-12-12-12----14------------10h12-|
-x-5-x-5-x-5-x-5-12-12-12---------12-10-------10-10-10-10-12------------12-------|
-x-7-x-7-x-7-x-7-----------------------------------------------------------------|

---------------------------------------------------------------------------------|
---------------------------------------------------------------------------------|
-x-9-x-9-x-9-x-9--9--9--9--9h10p9----------14-14-14-14-14-------16-14p9----------|
-x-7-x-7-x-7-x-7-10-10-10-10------------12----12-12-12-12----14------------10h12-|
-x-5-x-5-x-5-x-5-12-12-12---------12-10-------10-10-10-10-12------------12-------|
-x-7-x-7-x-7-x-7-----------------------------------------------------------------|

-------------------------------------|
-------------------------------------|
-x-9-x-9-x-9-x-9--9--9--9--9h10p9----|
-x-7-x-7-x-7-x-7-10-10-10-10---------|
-x-5-x-5-x-5-x-5-12-12-12---------12-|
-x-7-x-7-x-7-x-7---------------------|

-------------------------------------------------------------|
-------------------------------------------------------------|
-x-9-x-9-x-9-x-9--9--9--9--9h10p9----------14-14-14-14-14-16-|
-x-7-x-7-x-7-x-7-10-10-10-10------------12----12-12-12-12-14-|
-x-5-x-5-x-5-x-5-12-12-12---------12-10-------10-10-10-10-12-|
-x-7-x-7-x-7-x-7---------------------------------------------|

Chorus
------------------------------------|
-8-x-10-x-12-x-12-x-----------------|
------------------------------------|
-5-x--7-x--9-x--9-x-----------------|
--------------------7-x-5-x-7-x-7-x-|
--------------------5-x-3-x-5-x-5-x-|

--------------------10-x------12-x-12-x----------------------------------------|
-8-x-10-x-12-x-12-x------12-x-----------8-x-10-x-12-x-12-x-12-x-10-x-12-x-12-x-|
---------------------7-x-------9-x--9-x----------------------------------------|
-5-x--7-x--9-x--9-x-------9-x-----------5-x--7-x--9-x--9-x--9-x--7-x--9-x--9-x-|
-------------------------------------------------------------------------------|
-------------------------------------------------------------------------------|

--------------------10-x------12-x-12-x----------------------------------------|
-8-x-10-x-12-x-12-x------12-x-----------8-x-10-x-12-x-12-x-12-x-10-x-12-x-12-x-|
---------------------7-x-------9-x--9-x----------------------------------------|
-5-x--7-x--9-x--9-x-------9-x-----------5-x--7-x--9-x--9-x--9-x--7-x--9-x--9-x-|
-------------------------------------------------------------------------------|
-------------------------------------------------------------------------------|

Pre-Verse
------------------------------------------------------------------------|
------------------------------------------------------------------------|
-----x-x-x-x----------10-12-------14-14-14-14-14-------16-14p9----------|
--7\-x-x-x-x-10h12p10-10-10----12----12-12-12-12----14------------10h12-|
--5\-x-x-x-x-12-------------10-------10-10-10-10-12------------12-------|
------------------------------------------------------------------------|

Verse
---------------------------------------------------------------------------------|
---------------------------------------------------------------------------------|
-x-9-x-9-x-9-x-9--9--9--9--9h10p9----------14-14-14-14-14-------16-14p9----------|
-x-7-x-7-x-7-x-7-10-10-10-10------------12----12-12-12-12----14------------10h12-|
-x-5-x-5-x-5-x-5-12-12-12---------12-10-------10-10-10-10-12------------12-------|
-x-7-x-7-x-7-x-7-----------------------------------------------------------------|

---------------------------------------------------------------------------------|
---------------------------------------------------------------------------------|
-x-9-x-9-x-9-x-9--9--9--9--9h10p9----------14-14-14-14-14-------16-14p9----------|
-x-7-x-7-x-7-x-7-10-10-10-10------------12----12-12-12-12----14------------10h12-|
-x-5-x-5-x-5-x-5-12-12-12---------12-10-------10-10-10-10-12------------12-------|
-x-7-x-7-x-7-x-7-----------------------------------------------------------------|
[ Tab from: http://www.guitaretab.com/m/misc-unsigned-bands/111562.html ]
---------------------------------------------------------------------------------|
---------------------------------------------------------------------------------|
-x-9-x-9-x-9-x-9--9--9--9--9h10p9----------14-14-14-14-14-------16-14p9----------|
-x-7-x-7-x-7-x-7-10-10-10-10------------12----12-12-12-12----14------------10h12-|
-x-5-x-5-x-5-x-5-12-12-12---------12-10-------10-10-10-10-12------------12-------|
-x-7-x-7-x-7-x-7-----------------------------------------------------------------|

---------------------------------------------|
---------------------------------------------|
-x-9-x-9-x-9-x-9-x-9-x-9-x-9-x-9-x-9-x-9-x-9-|
-x-7-x-7-x-7-x-7-x-7-x-7-x-7-x-7-x-7-x-7-x-7-|
-x-5-x-5-x-5-x-5-x-5-x-5-x-5-x-5-x-5-x-5-x-5-|
-x-7-x-7-x-7-x-7-x-7-x-7-x-7-x-7-x-7-x-7-x-7-|

Chorus
--------------------10-x------12-x-12-x----------------------------------------|
-8-x-10-x-12-x-12-x------12-x-----------8-x-10-x-12-x-12-x-12-x-10-x-12-x-12-x-|
---------------------7-x-------9-x--9-x----------------------------------------|
-5-x--7-x--9-x--9-x-------9-x-----------5-x--7-x--9-x--9-x--9-x--7-x--9-x--9-x-|
-------------------------------------------------------------------------------|
-------------------------------------------------------------------------------|

--------------------10-x------12-x-12-x----------------------------------------|
-8-x-10-x-12-x-12-x------12-x-----------8-x-10-x-12-x-12-x-12-x-10-x-12-x-12-x-|
---------------------7-x-------9-x--9-x----------------------------------------|
-5-x--7-x--9-x--9-x-------9-x-----------5-x--7-x--9-x--9-x--9-x--7-x--9-x--9-x-|
-------------------------------------------------------------------------------|
-------------------------------------------------------------------------------|

--------------------10-x------12-x-12-x----------------------------------------|
-8-x-10-x-12-x-12-x------12-x-----------8-x-10-x-12-x-12-x-12-x-10-x-12-x-12-x-|
---------------------7-x-------9-x--9-x----------------------------------------|
-5-x--7-x--9-x--9-x-------9-x-----------5-x--7-x--9-x--9-x--9-x--7-x--9-x--9-x-|
-------------------------------------------------------------------------------|
-------------------------------------------------------------------------------|

--------------------10-x------12-x-12-x----------------------------------------|
-8-x-10-x-12-x-12-x------12-x-----------8-x-10-x-12-x-12-x-12-x-10-x-12-x-12-x-|
---------------------7-x-------9-x--9-x----------------------------------------|
-5-x--7-x--9-x--9-x-------9-x-----------5-x--7-x--9-x--9-x--9-x--7-x--9-x--9-x-|
-------------------------------------------------------------------------------|
-------------------------------------------------------------------------------|

Bridge (Break for a while)
---------------------------------|
---------------------------------|
-----5-5-----5-5-----5-5---------|  8xs
---------7-7-------------5-5-7-7-|
-5-5-------------5-5-------------|
---------------------------------|

Ending Chorus
--------------------10-x------12-x-12-x----------------------------------------|
-8-x-10-x-12-x-12-x------12-x-----------8-x-10-x-12-x-12-x-12-x-10-x-12-x-12-x-|
---------------------7-x-------9-x--9-x----------------------------------------|
-5-x--7-x--9-x--9-x-------9-x-----------5-x--7-x--9-x--9-x--9-x--7-x--9-x--9-x-|
-------------------------------------------------------------------------------|
-------------------------------------------------------------------------------|

--------------------10-x------12-x-12-x----------------------------------------|
-8-x-10-x-12-x-12-x------12-x-----------8-x-10-x-12-x-12-x-12-x-10-x-12-x-12-x-|
---------------------7-x-------9-x--9-x----------------------------------------|
-5-x--7-x--9-x--9-x-------9-x-----------5-x--7-x--9-x--9-x--9-x--7-x--9-x--9-x-|
-------------------------------------------------------------------------------|
-------------------------------------------------------------------------------|

--------------------10-x------12-x-12-x----------------------------------------|
-8-x-10-x-12-x-12-x------12-x-----------8-x-10-x-12-x-12-x-12-x-10-x-12-x-12-x-|
---------------------7-x-------9-x--9-x----------------------------------------|
-5-x--7-x--9-x--9-x-------9-x-----------5-x--7-x--9-x--9-x--9-x--7-x--9-x--9-x-|
-------------------------------------------------------------------------------|
-------------------------------------------------------------------------------|

--------------------10-x------12-x-12-x----------------------------------------|
-8-x-10-x-12-x-12-x------12-x-----------8-x-10-x-12-x-12-x-12-x-10-x-12-x-12-x-|
---------------------7-x-------9-x--9-x----------------------------------------|
-5-x--7-x--9-x--9-x-------9-x-----------5-x--7-x--9-x--9-x--9-x--7-x--9-x--9-x-|
-------------------------------------------------------------------------------|
-------------------------------------------------------------------------------|

----
-10-
----
--7-
----
----
Related for Plans For An Exit - Headlights And Nightlife tab