Guitaretab - guitar tabs
Song name
# A B C D E F G H I J K L M N O P Q R S T U V W X Y Z

Misc Unsigned Bands - Plans For An Exit - A Chill I Cant Shake tab

Song: A Chill I Cant Shake
Artist: Plans for an Exit
Tabbed By: Aaron Dethrage
Tuning: Drop D

Intro
---------11-10/8-6h8----------------------------11-10/8-6h8----------------8--|
-11p8----------------9p8------------8h9-11p8----------------9p8---------------|
-------------------------10h12----------------------------------10h12---------| 6xs
------10-----------------------10p8----------10-----------------------10p8----|
------------------------------------------------------------------------------|
------------------------------------------------------------------------------|

Verse 1
---------------------------------8-------------------------------------------|
---------------------------9p8-----8-----------------------------------------|
-----------------8p7-8p7-------8---------------------8p7---------------------| 4xs
-------------------------8-------------------------------8h10p8h10p8h10p8h10-|
---10-10-10-10p8-----------------------10-10-10-10p8-------------------------|
-8-----------------------------------8---------------------------------------|

Guitar Break
-----------------------------------------------------|
---------11h13----------------------------------9h11-|
------10-------12h13p12-10----------10---------------|
---------------------------13-13-13----13-13-13------|
-8h10------------------------------------------------|
-----------------------------------------------------|

---------------------------8-------8----11p10-|
---------11h13----------11---11-11---11-------|
------10-------12h13p12-----------------------|
----------------------------------------------|
-8h10-----------------------------------------|
----------------------------------------------|

-----------------------------------------------------|
---------11h13----------------------------------9h11-|
------10-------12h13p12-10----------10---------------|
---------------------------13-13-13----13-13-13------|
-8h10------------------------------------------------|
-----------------------------------------------------|

----------------------------------------------|
---------11h13--------------------13-13-13-13-|
------10-------12h13p12-10p8-12p8-------------|
----------------------------------------------|
-8h10-----------------------------------------|
----------------------------------------------|

Chorus
------------------------------------------------------------------------------|
------------------------------------------------------------------------------|
-10/12-12-12-12/8-8/10-13/12-12-12-15/13-15/17-5/3---7-7-7-7-7-5/3---7/8-5/12-| 2xs
------------------------------------------------------------------------------|
--8/10-10-10-10/6-6/-8-11/10-10-10-13/11-13/15-3/1---5-5-5-5-5-3/1---5/6-3/10-|
---------------------------------------------------5---------------5----------|

---------------------------------------|
-11---(11)----8------------------------|
--8----(8)----8------------------------|
-10---(10)----6----8/10-10/12-13/12/10-|
--8----(8)----6------------------------|
-------------------8/10-10/12-13/12-10-|

------------------------------------------------------------------------------|
------------------------------------------------------------------------------|
-10/12-12-12-12/8-8/10-13/12-12-12-15/13-15/17-5/3---7-7-7-7-7-5/3---7/8-5/12-|
------------------------------------------------------------------------------|
--8/10-10-10-10/6-6/-8-11/10-10-10-13/11-13/15-3/1---5-5-5-5-5-3/1---5/6-3/10-|
---------------------------------------------------5---------------5----------|

Intro
---------11-10/8-6h8----------------------------11-10/8-6h8----------------8--|
-11p8----------------9p8------------8h9-11p8----------------9p8---------------|
-------------------------10h12----------------------------------10h12---------| 2xs
------10-----------------------10p8----------10-----------------------10p8----|
------------------------------------------------------------------------------|
------------------------------------------------------------------------------|

Verse 2
---------------------------------8-------------------------------------------|
---------------------------9p8-----8-----------------------------------------|
-----------------8p7-8p7-------8---------------------8p7---------------------| 3xs
-------------------------8-------------------------------8h10p8h10p8h10p8h10-|
---10-10-10-10p8-----------------------10-10-10-10p8-------------------------|
-8-----------------------------------8---------------------------------------|
[ Tab from: http://www.guitaretab.com/m/misc-unsigned-bands/111563.html ]
---------------------------------8--------------------------------------|
---------------------------9p8-----8------------------------------------|
-----------------8p7-8p7-------8---------------------8p7----------------|
-------------------------8-------------------------------8h10p8h10p8h10-|
---10-10-10-10p8-----------------------10-10-10-10p8--------------------|
-8-----------------------------------8----------------------------------|

Chorus
------------------------------------------------------------------------------|
------------------------------------------------------------------------------|
-10/12-12-12-12/8-8/10-13/12-12-12-15/13-15/17-5/3---7-7-7-7-7-5/3---7/8-5/12-| 2xs
------------------------------------------------------------------------------|
--8/10-10-10-10/6-6/-8-11/10-10-10-13/11-13/15-3/1---5-5-5-5-5-3/1---5/6-3/10-|
---------------------------------------------------5---------------5----------|

---------------------------------------|
-11---(11)----8------------------------|
--8----(8)----8------------------------|
-10---(10)----6----8/10-10/12-13/12/10-|
--8----(8)----6------------------------|
-------------------8/10-10/12-13/12-10-|

------------------------------------------------------------------------------|
------------------------------------------------------------------------------|
-10/12-12-12-12/8-8/10-13/12-12-12-15/13-15/17-5/3---7-7-7-7-7-5/3---7/8-5/12-|
------------------------------------------------------------------------------|
--8/10-10-10-10/6-6/-8-11/10-10-10-13/11-13/15-3/1---5-5-5-5-5-3/1---5/6-3/10-|
---------------------------------------------------5---------------5----------|

Guitar Break
---------------------|
---------------------|
---------------------| 8xs
---------------------|
-8h10p8h10p8h10p8h10-
---------------------

-----8-----------------8--------11h13-----8--------------------------------|
-11b---11b---------11b---11b-13-------11b---11b----------------------------|
--------------------------------------------------------12-11-10------8----|
--------------8h10---------------------------------8h10-----------------10-| 5xs
-----------10-----------------------------------10------10--9--8-8h10------|
---------------------------------------------------------------------------|

Chorus
------------------------------------------------------------------------------|
------------------------------------------------------------------------------|
-10/12-12-12-12/8-8/10-13/12-12-12-15/13-15/17-5/3---7-7-7-7-7-5/3---7/8-5/12-| 2xs
------------------------------------------------------------------------------|
--8/10-10-10-10/6-6/-8-11/10-10-10-13/11-13/15-3/1---5-5-5-5-5-3/1---5/6-3/10-|
---------------------------------------------------5---------------5----------|

-11-11-11-10-10-10-11-11-11-10-10-10--8--8-10-10-|
--8--8--8--8--8--8--8--8--8--8--8--8--8--8--8--8-|
-10-10-10-10-10-10-10-10-10-10-10-10-10-10-10-10-|
-------------------------------------------------|
-------------------------------------------------|
-------------------------------------------------|

-------------------------------------------------|
--9--9--9--8--8--8--9--9--9--8--8--8-11-11--8--8-|
--8--8--8--8--8--8--8--8--8--8--8--8--8--8--8--8-|
-10-10-10-10-10-10-10-10-10-10-10-10-10-10-10-10-|
-------------------------------------------------|
-------------------------------------------------|

-11-11-11-10-10-10-11-11-11-10-10-10--8--8-10-10---------------------|
--8--8--8--8--8--8--8--8--8--8--8--8--8--8--8--8---------------------|
-10-10-10-10-10-10-10-10-10-10-10-10-10-10-10-10---------------------|
-------------------------------------------------8/10-10/12-13/12-10-|
---------------------------------------------------------------------|
-------------------------------------------------8/10-10/12-13/12-10-|

------------------------------------------------------------------------------|
------------------------------------------------------------------------------|
-10/12-12-12-12/8-8/10-13/12-12-12-15/13-15/17-5/3---7-7-7-7-7-5/3---7/8-5/12-|
------------------------------------------------------------------------------|
--8/10-10-10-10/6-6/-8-11/10-10-10-13/11-13/15-3/1---5-5-5-5-5-3/1---5/6-3/10-|
---------------------------------------------------5---------------5----------|

Ending
---------11-10/8-6h8----------------------------11-10/8-6h8----------------8--|
-11p8----------------9p8------------8h9-11p8----------------9p8---------------|
-------------------------10h12----------------------------------10h12---------|
------10-----------------------10p8----------10-----------------------10p8----|
------------------------------------------------------------------------------|
------------------------------------------------------------------------------|

---------11-10/8-6h8----------------------------11-10/8-6h8----------------8h10-|
-11p8----------------9p8------------8h9-11p8----------------9p8-----------------|
-------------------------10h12----------------------------------10h12-----------|
------10-----------------------10p8----------10-----------------------10p8------|
--------------------------------------------------------------------------------|
--------------------------------------------------------------------------------|
Related for Plans For An Exit - A Chill I Cant Shake tab