Song name
# A B C D E F G H I J K L M N O P Q R S T U V W X Y Z

Misc Unsigned Bands - Vredesfaust - Necromance tab

Band: Vredesfaust
Song: NecRomance
Tuning: Eb

[-----------------]
[-----------------]
[-----------------]
[-4-4-4-7-8-8-8-7-] X4
[-2-2-2-5-6-6-6-5-]
[-----------------]

and then the drums will kick in and it goes another 4 times

[---------------------------------------]
[---------------------------------------]
[---------------------------------------]
[---------------------------7--10-------] x4
[---7/8/7--10/11/10--7/8/7--5--8--------]
[-00-----00--------00-------------------]

[-----------------]
[-----------------]
[-----------------]
[-4-4-4-7-8-8-8-7-] X4
[-2-2-2-5-6-6-6-5-]
[-----------------]

[-------------------------]
[-------------------------]
[-------------------------] x 4
[----9----9-10---9----9-8-]
[----7----7-8----7----7-6-]
[-00---00-----00---00-----]

[-----------------]
[-----------------]
[-----------------]
[-4-4-4-7-8-8-8-7-] X4
[-2-2-2-5-6-6-6-5-]
[-----------------]

Lyrics:
Carcass raped, torn and beaten
Lifeless still shes giving head
Blood between her legs as
I continue to molest the dead

Some people say that I'm sick
Others think that its romantic
I say, "Who gives a fuck?"
SHE'LL NEVER STOP ME!


Tab submitted by: Wrath
All rights reserved to Vredesfaust

listen to us at
www.myspace.com/sarcophagus666
Tap to rate this tab
 
# A B C D E F G H I J K L M N O P Q R S T U V W X Y Z