Song name
# A B C D E F G H I J K L M N O P Q R S T U V W X Y Z

Misc Unsigned Bands - The New Vaudeville Band - Winchester Cathedral tab

Help us improve GuitareTab! Take a short survey!
WINCHESTER CATHEDRAL INTRO
I couldn't find this anywhere on any site, so I whipped up a tab.
Vo-de-o-do!


E-----8-5--------------|
B--5-8-----------8-5---|
G-7-----------4-7------|
D------------7---------|
A----------------------|
E----------------------|


E----------------------|
B-----8-5--------------|
G--4-7-------5---------|
D-7-------5-7----------|
A----------------------|
E----------------------|
Related for The New Vaudeville Band - Winchester Cathedral tab