Song name
# A B C D E F G H I J K L M N O P Q R S T U V W X Y Z

Misc Unsigned Bands - Datura - Firefight tab

---------------------------------\----------------- \             Song in Drop D tuning
--------------------------------------------------- \
---------------------------------  \--------------- \               Rythem guitar for Song
---------------------------------  ---------------- \
-444--444-4444-444-444--4444-----   --------------- \
-444--444-4444-444-444--4444-----    -------------- \
                                       \
---------------------------------      ------- \
---------------------------------       ------ \
---------------------------------        ----- \
---------------------------------         ---- \
-555--555-5555-555-555--5555-----          --- \
-555--555-5555-555-555--5555-----           -- \
                                              X2
--------------------------------------------- \            /
--------------------------------------------- \           /
--------------------------------------------- \          /
--------------------------------------------- \         /
-222--222-2222-222-222--2222----------------- \        /
-222--222-2222-222-222--2222----------------- \       /
                                       /
-------------------------------------- \     /
-------------------------------------- \    /
-------------------------------------- \   /
-------------------------------------- \  /
-444--444-4444-444-444--4444---------- \ /
-444--444-4444-444-444--4444---------- \

After 2nd time play
---------------------------------|
---------------------------------|
-----------X\--------------------|
-------------X\------------------|
-0--4-4-4------X\----------------|
-0--4-4-4--------X\--------------|

---------------------------------|
---------------------------------|
---------------------------------|
---------------------------------|
-5~-3=--5~-3=--5~-3=--5~-3=------|
-5~-3=--5~-3=--5~-3=--5~-3=------|

---------------------------------|
---------------------------------|
---------------------------------|
-------------X\------------------|
-0=--4=4=4-----X\\\\\\\----------|
-0=--4=4=4-----------------------|

---------------------------------|
---------------------------------|
---------------------------------|
---------------5~-3=--5~-3=------|
-5~-4=--5~-4=--3~-1=--3~-1=------|
-5~-4=--5~-4=--------------------|

---------------------------------|
---------------------------------|
---------------------------------|
----------------------X\---------|
-5~-4=-5~-4=--0--4-4----X\--X/---|
-5~-4=-5~-4=--0--4-4------X\-----|

-0=--------------------------------------\----- \
-0=-4p0-5p0-7p0-8p0-10p0-8p0-7p0-5p0----------- \
----------------------------------------- ----- \
-----------------------------------------  ---- \
-----------------------------------------   --- \
-----------------------------------------x3  -- \
                                               \
After 3rd time:                                 \
------------------------------------------------- \     x2
--4h5p4--4h5p4h5p4------------------------------- \    /
------------------------------------------------- \   /
------------------------------------------------- \  /
------------------------------------------------- \ /
------------------------------------------------- \


--------------------------------------------|
--------------------------------------------|
--------------------------------------------|
--------------------------------------------|
-0=--10~-12~-13~-15-13-12-10----------------|
-0=--10~-12~-13~-15-13-12-10----------------|x3

---------------------------------------------|
---------------------------------------------|
---------------------------------------------|
---------------------------------------------|
-0-2~-3~-5~5=--3=3=-2=2=---------------------|
-0-2~-3~-5~5=--3=3=-2=2=---------------------|x3

---5p3h5X/-----------------------------------|
----------X/---------------------------------|
------------X/------------X\-----------------|
--------------X/--------X\-------------------|
----------------X/----X\---------------------|
------------------X/X\-----------------------|

-0=------------------------------------------\----- \
-0=-4p0-5p0-7p0-8p0-10p0-8p0-7p0-5p0--------------- \
--------------------------------------------- ----- \
---------------------------------------------  ---- \
---------------------------------------------   --- \
---------------------------------------------x3  -- \
                                                   x2
-------------------------------------------------- \     /
-4h5p4-4h5p4h5p4---------------------------------- \    /
-------------------------------------------------- \   /
-------------------------------------------------- \  /
-------------------------------------------------- \ /
-------------------------------------------------- \

------------------8*-------------------------- \
----------------8*---------------------------- \
--------------8*-----7/9---------------------- \
------------8*-------------------------------- \
-0--5~----8*---------5/7---------------------- \
-0--5~--8*------------------------------------ \guitar 2 out
Guitar 1 Solo
Guitar rejoins when guitar 1 hits b-5
--------------------------9+------------------ \
----8*-8+-\\\\\\----------8+\\\--------------- \
---------------------------------------------- \
-5~+------------------------------------------ \
-5~+------------------------------------------ \
solo outro:
-10~-9p7h9----10~-9p7h9--10=-10/12V-----------|
----------------------------------------------|
----------------------------------------------|
----------------------------------------------|
----------------------------------------------|
----------------------------------------------|x2

-12~v-12p10p9h10--12~v-12p10p9h10--12=-12/14-- \
---------------------------------------------- \
---------------------------------------------- \
---------------------------------------------- \
---------------------------------------------- \
---------------------------------------------- \x2
Guitar 1 and Guitar 2
-0-12p10p9-10p9p7-9p7\5-7p5p4-5p4p2-4p3p1-----|
----------------------------------------------|
----------------------------------------------|
----------------------------------------------|
----------------------------------------------|
----------------------------------------------|
EB Doubble Guitar Verse:
---3p2p0h2---2~~--2~2x-x-2~2x-x-2-2-x-x-2/5~5-\----- \
-------------0~~--0~0x-x-0~0x-x-0-0-x-x-0~~~0------- \
---------------------------------------------- ----- \
----------------------------------------------  ---- \
----------------------------------------------   --- \
----------------------------------------------    -- \
                                                    x16
-xx-4~4-x-x-4-4-x-x-------------------------------- \     /
-xx-0~0-x-x-0-0-x-x-------------------------------- \    /
--------------------------------------------------- \   /
--------------------------------------------------- \  /
--------------------------------------------------- \ /
--------------------------------------------------- \
Guitar 1 breaks off into pre-solo on x3
Guitar 1 Solo A
Optional Guitar 2 Solo
Guitar 1 Solo B
Guitar 1 and Guitar 2 go to EB Doubble Guitar Verse againx3
Guitar 1 pre harmony riff

Twin Harmony Riff:
---3-5-5/7~v-7-5----------5-7-7/9~v------------|
-5---------------5-5h7~-7-----------3/5/7~-----|
-----------------------------------------------|
-----------------------------------------------|
-----------------------------------------------|
-----------------------------------------------|

-----6-7------------9~~V-7---------------------|
---7----7---------7-----------------------9h10-|
-8-------6-6h8~-8-----------12--7-7h9~-7h9-----|
-----------------------------------------------|
-----------------------------------------------|
-----------------------------------------------|

-12~v-12-10-9-9h10-------------12p10p9h10------|
------------------10---------------------10----|
---------------------7-7/9/11~-----------------|
-----------------------------------------------|
-----------------------------------------------|
-----------------------------------------------|

-----------12=12-10=10=----10=-5/7~/9~~--------|
--5/7/10~---------------12=----7/9~/10~--------|
-----------------------------------------------|
-----------------------------------------------|
-----------------------------------------------|
-----------------------------------------------|
Guitar 2 Out
Outro
Tap to rate this tab
# A B C D E F G H I J K L M N O P Q R S T U V W X Y Z