Song name
# A B C D E F G H I J K L M N O P Q R S T U V W X Y Z

Misc Unsigned Bands - Buffalo - Dead Forever tab

Buffalo
Dead Forever
Dead Forever, 1972-Vertigo

This is my first tab, so it's simplified and likely not so accurate. It doesn't include 
or solos. There are definitely two or more guitar tracks in this song. This is only one 
them.

INTRO RIFF
Eb------------------------|------------------------|
Bb------------------------|------------------------|
Gb------------------------|------------------------|
Db----------5-------------|---------5--------------|
Ab--7-57-(7)--57-7-573-35-|-57-7-57--7-57-7-573-35-|
Eb-----------------------3|-----------------------3|

MAIN RIFF (1x)
Eb---------------------------------------|
Bb---------------------------------------|
Gb--7/9-9-999\7-7-777/9-999\7-(7)--------|
Db--7/9-9-999\7-7-777/9-999\7-(7)-7p9-7p9|
Ab--5/7-7-777\5-5-555/7-777\5-(5)--------|
Eb---------------------------------------|

VERSE
(4x) You can throw in various fills in between
Eb------------------------------|
Bb------------------------------|
Gb--7/9-9-999\7-7-777/9-9-999\7-|
Db--7/9-9-999\7-7-777/9-9-999\7-|
Ab--5/7-7-777\5-5-555/7-7-777\5-|
Eb------------------------------|

CHORUS (2x)
Eb-----------------------------------------|
Bb-----------------------------------------|
Gb--9-9-9-9-7-7-7-7------------------------|
Db--9-9-9-9-7-7-7-7-7/999-7/999-7/9-999999-|
Ab--7-7-7-7-5-5-5-5-7/999-7/999-7/9-999999-|
Eb------------------5/777-5/777-5/7-777777-|

Repeat Verse and Chorus progression again

(SOLO)

Repeat Chorus and add an ending of:
Eb------|
Bb------|
Gb--7---|
Db--7-2-|
Ab--5-2-|
Eb----0-|

INTRO RIFF (6x)
To me, it sounds like one guitar plays this and then the other is playing one fifth 
so to get the full sound you may wish to use power chords instead of single notes.
Eb-------------------------|
Bb-------------------------|
Gb-------------------------|
Db----------5--------------|
Ab--57-7-57--7-57-7-573-35-|
Eb------------------------3|

Next Part (1x)... not too accurate, sorry.
Eb-----------------------------------8-8h10p8-8h10p8---|
Bb--------------------------------810---------------10-|
Gb------------------------------9----------------------|
Db----5---7---75---3---5---53--------------------------|
Ab------57--57-------35--35---7------------------------|
Eb--5------------3------------0------------------------|

(2x)
Eb--------------|
Bb--------------|
Gb--------------|
Db--2----02-222-|
Ab--2--02---222-|
Eb--0-3-----000-|

Ok, now there's another solo, which I can at least figure out the beginning of (you can 
it from the "..."):
Eb--12-10-12-10-12-10-12-10-12-10-12-15--12-10----------------------...
Bb---------------------------------------------12-10----------------...
Gb---------------------------------------------------12~-------12~-9...
Db-------------------------------------------------------12-14------...
Ab------------------------------------------------------------------...
Eb------------------------------------------------------------------...

SYMBOLS
/ = slide up
\ = slide dowm
h = hammer on
p = pull off
~ = bend string

Sorry for the quality, again, it's my first tab and I am an amateur teenage guitarist 
has never taken a lesson, so it is what it is.


Since this is the first tab by Buffalo on UltimateGuitar, so I need to provide a link to 
website: http://www.vision.net.au/~eagle/index.htm
Tap to rate this tab
 
# A B C D E F G H I J K L M N O P Q R S T U V W X Y Z