Song name
# A B C D E F G H I J K L M N O P Q R S T U V W X Y Z

Misc Unsigned Bands - Faunts - M4 Part Ii tab

 This song hasn't been tabbed yet, but i think its a very simple song and i figured it 
in about 10 minutes. I dont have the whole song or the 2nd guitar part yet, so i need 
on the missing parts.


Intro/verse   (muted) same notes even when not muted

e|----------------------------------------------------------------------------|
B|-0-0-7-7-7-7-7-7-7-7-0-0-7-7-7-7-7-7-7-7-0-0-5-5-5-5-5-5-5-5-8-8-8-8h10-7---|
G|----------------------------------------------------------------------------|
D|----------------------------------------------------------------------------|
A|----------------------------------------------------------------------------|
E|----------------------------------------------------------------------------|

2nd verse

e|------------------------------------------------------------------------------|
B|-7-5-7-5--7-5-7-5--7-5-7-5--7-5-7-5--8-7-8-7--8-7-8-7--8-10-8-10--10-12-10-12-|
G|------------------------------------------------------------------------------|
D|------------------------------------------------------------------------------|
A|------------------------------------------------------------------------------|
E|------------------------------------------------------------------------------|

e|----------------------------------------------------------------------------|
B|-10-8-10-8--7-7-7--12-10-12-10----------------------------------------------|
G|----------------------------------------------------------------------------|
D|----------------------------------------------------------------------------|
A|----------------------------------------------------------------------------|
E|----------------------------------------------------------------------------|

1st verse pattern

Then a chorus type of thing comes...

e|----------------------------------------------------------------------------|
B|-5-5-5-5--5-5-5-5--5-5-5-5--5-5-5-5-(x2)-3-3-3-3--3-3-3-3--3-3-3-3--3-3-3-3-|
G|----------------------------------------------------------------------------|
D|----------------------------------------------------------------------------|
A|----------------------------------------------------------------------------|
E|----------------------------------------------------------------------------|

Pre-chorus

e|----------------------------------------------------------------------------|
B|-5~~~~~~--3~~~~~~---5~~-8~~~-7~~~~--5~~~~~--3~~~~~--5~~~~~---0~~------------|
G|------------------------------------------------------------------2~~-------|
D|----------------------------------------------------------------------------|
A|----------------------------------------------------------------------------|
E|----------------------------------------------------------------------------|

Chorus: Same as 2nd verse

I still dont have the 1st part of the interlude or the outro, but the second part of the 
is just the main riff and then the 2nd verse pattern.
please give feedback!


Faunts website: http://www.myspace.com/faunts
Tap to rate this tab
# A B C D E F G H I J K L M N O P Q R S T U V W X Y Z