Song name
# A B C D E F G H I J K L M N O P Q R S T U V W X Y Z

Misc Unsigned Bands - The Upper Crust - Eureka Ive Found Love tab

Help us improve GuitareTab! Take a short survey!
Song:  Eureka, I've Found Love
Band:  The Upper Crust


I am not a world class guitar tabber but this should give you a pretty good idea of what
song sounds like and base structure.  I think I have added 1 more power chord that is
needed at the end of every chorus and verse |------| thingy.  Where there are 3 power
there should be 2.  Did you understand that?  It might be a little confusing soooo
This is it.  I dont want to change it becuase I originally posted this on "Pages" (Poser
of Microsoft Word) and I tried putting this on here but it got all messed up, so i had
do A LOT of retouching.  Preview Tab to Edit Tab to Preview Tab to Edit Tab and on and
and on and on.  So again this is it.  I hope its right and you enjoy it!

And now, this is my second attempt to post this up with out it fxcking up or having UG 
it up either.


Intro

|----------------------------------------------|
|----------------------------------------------|
|----------------------------------------------|
|--6---4---------------------------------------|
|------------6---4-----------------------------|
|----------------------7---4---2---2h4---------|
				                              	                    x4
|-------------------------------------|
|-------------------------------------|
|-----------------4--4--4/6-----------|
|--6------4-------4--4--4/6-------6---|
|--6------4-------2--2--2/4-------6---|
|--4------2-----------------------4---|

Verse

|--------------------------------------|
|--------------------------------------|
|--------------------------------------|
|--6---4-------------------------------|
|------------6---4---------------------|
|----------------------7---4---2-------|

|---------------------------|
|---------------------------|
|---------------------------|
|--6-6------6-------6-6-6---|		x4
|--6-6------6-------6-6-6---|
|--4-4------4-------4-4-4---|

|---------------------------|
|---------------------------|
|-6-6----------6-6-6--------|
|-6-6------6---6-6-6--------|
|-4-4------6---4-4-4--------|
|----------4----------------|

|---------------------------|
|---------------------------|
|---------------------------|
|--6-6------6-------6-6-6---|
|--6-6------6-------6-6-6---|
|--4-4------4-------4-4-4---|

|-----------------------|
|-----------------------|
|--8-8----------8-8-8---|
|--8-8------6---8-8-8---|
|--6-6------6---6-6-6---|
|-----------4-----------|

|----------------------|
|----------------------|
|--6-6---------6-6-6---|
|--6-6-----6---6-6-6---|
|--4-4-----6---4-4-4---|
|----------4-----------|

|--------------------------|
|--------------------------|
|--8-8---------8-8-8-------|
|--8-8-----6---6-6-6----6--|
|--6-6-----6---4-4-4----6--|
|----------4------------4--|

Chorus

|---------------------|
|---------------------|
|----------4-4-----6--|
|--6-6-----4-4-----6--|
|--6-6-----2-2-----4--|
|--4-4----------------|

|-----------------|
|-----------------|
|----------4-4----|
|--6-6-----4-4----|
|--6-6-----2-2----|
|--4-4------------|

|------------|
|------------|
|---------6--|
|--6------6--|
|--6------4--|
|--4---------|

|---------------------------------|
|---------------------------------|
|---------------------------------|
|--6---4--------------------------|
|------------6---4----------------|
|----------------------7---4---2--|

Verse

|---------------------------|
|---------------------------|
|---------------------------|
|--6-6------6-------6-6-6---|		x2
|--6-6------6-------6-6-6---|
|--4-4------4-------4-4-4---|

|----------------------|
|----------------------|
|--6-6----------6-6-6--|
|--6-6------6---6-6-6--|
|--4-4------6---4-4-4--|
|-----------4----------|

|---------------------------|
|---------------------------|
|---------------------------|
|--6-6------6-------6-6-6---|
|--6-6------6-------6-6-6---|
|--4-4------4-------4-4-4---|

|-----------------------|
|-----------------------|
|--8-8----------8-8-8---|
|--8-8------6---8-8-8---|
|--6-6------6---6-6-6---|
|-----------4-----------|

|----------------------|
|----------------------|
|--6-6---------6-6-6---|
|--6-6-----6---6-6-6---|
|--4-4-----6---4-4-4---|
|----------4-----------|

|--------------------------|
|--------------------------|
|--8-8---------8-8-8-------|
|--8-8-----6---6-6-6----6--|
|--6-6-----6---4-4-4----6--|
|----------4------------4--|

Chorus

|---------------------|
|---------------------|
|----------4-4-----6--|
|--6-6-----4-4-----6--|
|--6-6-----2-2-----4--|
|--4-4----------------|

|---------------|
|---------------|
|----------4-4--|
|--6-6-----4-4--|
|--6-6-----2-2--|
|--4-4----------|

|------------|
|------------|
|---------6--|      x2
|--6------6--|
|--6------4--|
|--4---------|

Intro

|----------------------------------------|
|----------------------------------------|
|----------------------------------------|
|--6---4---------------------------------|    x2
|------------6---4-----------------------|
|----------------------7---4---2---2h4---|

|-------------------------------------|
|-------------------------------------|
|-----------------4--4--4/6-----------|
|--6------4-------4--4--4/6-------6---|
|--6------4-------2--2--2/4-------6---|
|--4------2-----------------------4---|

Solo:

Figure it out yourself

Verse

|---------------------------------|
|---------------------------------|
|---------------------------------|
|--6---4--------------------------|
|------------6---4----------------|
|----------------------7---4---2--|

|---------------------------|
|---------------------------|
|---------------------------|
|--6-6------6-------6-6-6---|		x2
|--6-6------6-------6-6-6---|
|--4-4------4-------4-4-4---|

|----------------------|
|----------------------|
|--6-6----------6-6-6--|
|--6-6------6---6-6-6--|
|--4-4------6---4-4-4--|
|-----------4----------|

|---------------------------|
|---------------------------|
|---------------------------|
|--6-6------6-------6-6-6---|
|--6-6------6-------6-6-6---|
|--4-4------4-------4-4-4---|

|-----------------------|
|-----------------------|
|--8-8----------8-8-8---|
|--8-8------6---8-8-8---|
|--6-6------6---6-6-6---|
|-----------4-----------|

|---------------------|
|---------------------|
|--6-6---------6-6-6--|
|--6-6-----6---6-6-6--|
|--4-4-----6---4-4-4--|
|----------4----------|

|--------------------------|
|--------------------------|
|--8-8---------8-8-8-------|
|--8-8-----6---6-6-6----6--|
|--6-6-----6---4-4-4----6--|
|----------4------------4--|

Chorus

|---------------------|
|---------------------|
|----------4-4-----6--|
|--6-6-----4-4-----6--|
|--6-6-----2-2-----4--|
|--4-4----------------|

|---------------|
|---------------|
|----------4-4--|
|--6-6-----4-4--|
|--6-6-----2-2--|
|--4-4----------|

|------------|
|------------|
|---------6--|
|--6------6--|
|--6------4--|
|--4---------|

|---------------------|
|---------------------|
|----------4-4-----6--|
|--6-6-----4-4-----6--|
|--6-6-----2-2-----4--|
|--4-4----------------|

|---------------|
|---------------|
|----------4-4--|
|--6-6-----4-4--|
|--6-6-----2-2--|
|--4-4----------|

|------------|
|------------|
|---------6--|        x2
|--6------6--|
|--6------4--|
|--4---------|

|---------------------------------------|
|---------------------------------------|
|---------------------------------------|
|--6---4-----------------------------6--|
|------------6---4-------------------6--|
|----------------------7---4---2---2-4--|


 intro
verse
chorus
verse
chorus
intro
solo
verse
chorus
Related for The Upper Crust - Eureka Ive Found Love tab