Song name
# A B C D E F G H I J K L M N O P Q R S T U V W X Y Z

Misc Unsigned Bands - Perfect Ending - Sleepwalker tab

Help us improve GuitareTab! Take a short survey!
This is one of my favorite songs on DDR (Ultramix 2) and I noticed there were no
tabs of it anywhere, so here it is! Look it up on youtube for the recording

Title: Sleepwalker
Artist: Perfect Ending
Tuning: Drop D


Intro:

Guitar 1 (lead distortion)
E--------------------------------------------------------------------------------------------|
B--------------------------------------------------------------------------------------------|
G--------------------------------------------------------------------------------------------|
D-------5---4---------5--4-----5---4------------------5---4---------7--5--4--5---4-----------|
A----------------5-----------5-----------5-----------------------4------------------------5--|
D--------------------------------------------------------------------------------------------|
x2

Guitar 2 (distortion)
E------------------------------------------|
B------------------------------------------|
G-----------------5-5-5-5-7-7-7-7-7-7-7-7--|   x4
D-------0-0-0-0-5-5-5-5-7-7-7-7-7-7-7-7----|
A-------0-0-0-0-3-3-3-3-5-5-5-5-5-5-5-5----|
D-------0-0-0-0----------------------------|


Verse:

Guitar 1 & 2 (heavy distortion)
E------------------------------------------------------------------------|
B------------------------------------------------------------------------|
G-----------------------5-5-5-5-5-5-5-5-7-7-7-7-7-7-7-7-7-7-7-7-9\7-9\7--|   x4
D-------0-0-0-0-0-0-0-0-5-5-5-5-5-5-5-5-7-7-7-7-7-7-7-7-7-7-7-7-9\7-9\7--|
A-------0-0-0-0-0-0-0-0-3-3-3-3-3-3-3-3-5-5-5-5-5-5-5-5-5-5-5-5-7\5-7\5--|
D-------0-0-0-0-0-0-0-0--------------------------------------------------|
    PM  .........    .....................................


Chorus:

Guitar 1 & 2 (heavy distortion)
E------------------------------------------------------------------------|
B------------------------------------------------------------------------|
G-----------------------5-5-5-5-5-5-5-5-7-7-7-7-7-7-7-7-7-7-7-7-7-7-7-7--|   x2
D-------0-0-0-0-0-0-0-0-5-5-5-5-5-5-5-5-7-7-7-7-7-7-7-7-7-7-7-7-7-7-7-7--|
A-------0-0-0-0-0-0-0-0-3-3-3-3-3-3-3-3-5-5-5-5-5-5-5-5-5-5-5-5-5-5-5-5--|
D-------0-0-0-0-0-0-0-0--------------------------------------------------|


Verse 2:

Same as the intro, but with the volume up on Guitar 2


Outro:

Guitar 1 (lead distortion)
E--------------------------------------------------------------------------------------------|
B--------------------------------------------------------------------------------------------|
G--------------------------------------------------------------------------------------------|
D-------5---4---------5--4-----5---4------------------5---4---------7--5--4--5---4-----------|
A----------------5-----------5-----------5-----------------------4------------------------5--|
D--------------------------------------------------------------------------------------------|
   x1

Guitar 2 (no distortion)
E----------------------------|
B-------------3----------3---|
G----------0----------0------|   x4
D-------0----------0---------|
A----2----------2------------|
D----------------------------|


Order:
Intro
Verse
Chorus
Verse 2
Intro
Outro
Related for Perfect Ending - Sleepwalker tab