Song name
# A B C D E F G H I J K L M N O P Q R S T U V W X Y Z

Misc Unsigned Bands - Sorry For The Silence - She Said She Was tab

/ = slide up
\ = slide down
h = hammer on
p = pull off
m = palm mute
~ = pitch harmonic

Intro [Strum]
D|---------------|
A|-333333333333--|
D|---------------|
G|-555555555555--|
B|---------------|
E|---------------|

D|----11p-9/11-0-----11p-9/11-0-m00-----------------|
A|-9p-----9/11-0--9p-----9/11-0-m00--555555-444444--|
D|--------9/11-0---------9/11-0-m00-----------------|
G|-----------------------------------777777-666666--|
B|--------------------------------------------------|
E|--------------------------------------------------|

D|----11p-9/11-0-m000000----------------|
A|-9p-----9/11-0-m000000-555555-444444--|
D|--------9/11-0-m000000----------------|
G|-----------------------777777-666666--|
B|--------------------------------------|
E|--------------------------------------|

D|----11p-9/11-0-m000000----------------|
A|-9p-----9/11-0-m000000-555555-777777--|
D|--------9/11-0-m000000----------------|
G|-----------------------777777-999999--|
B|--------------------------------------|
E|--------------------------------------|

D|----11p-9/11-0-m000000-----11p-9/11-0-m000000-------------0-|
A|-9p-----9/11-0-m000000--9p-----9/11-0-m000000-55555-44444-0-|
D|--------9/11-0-m000000---------9/11-0-m000000-------------0-|
G|----------------------------------------------77777-66666---|
B|------------------------------------------------------------|
E|------------------------------------------------------------|

Chorus [Strum]
D|--------------------------------|
A|--9-9-9-9-5555555-222222-444444-|
D|--------------------------------| [3x]
G|-11111111-7777777-444444-666666-|
B|--------------------------------|
E|--------------------------------|

Breakdown
D|----m0----m0----m0---------------|--0--|
A|--9-m0--9-m0--9-m0--22222-44444--|L-0--|
D|----m0----m0----m0---------------|A-0--| [4x]
G|-11----11----11-----44444-66666--|S----|
B|---------------------------------|T----|
E|---------------------------------|-----|

Break Down [Weird off beat pattern]
D|-9----9--9------5--|--9-|
A|-9----9--9------5--|L-9-|
D|-9----9--9------5--|A-9-| [8x]
G|-------------------|S---|
B|-------------------|T---|
E|-------------------|----|
     [Weird Background guitar]
D|----------|
A|--9----5--|
D|----------|
G|-11----7--|
B|----------|
E|----------|

Fast Chorus
D|-------------------55555-777-8888-77777--|
A|-22222-44444-55555-55555-777-8888-77777--|
D|-------------------55555-777-8888-77777--| [4x]
G|-44444-66666-77777-----------------------|
B|-----------------------------------------|
E|-----------------------------------------|

Slow Chorus
D|-000000-------------88888-77777-8-m00--|
A|-000000-44444/55555-88888-77777-8-m00--|
D|-000000-------------88888-77777-8-m00--| [4x]
G|--------66666/77777--------------------|
B|---------------------------------------|
E|---------------------------------------|

Bridge
D|-8-8-8-8---|
A|-8-8-8-8---|
D|-8-8-8-8---|
G|-----------|
B|-----------|
E|-----------|

Chorus [Strum]
D|--------------------------------|
A|--9-9-9-9-5555555-222222-444444-|
D|--------------------------------| [3x]
G|-11111111-7777777-444444-666666-|
B|--------------------------------|
E|--------------------------------|

Breakdown
D|----m0----m0----m0---------------|--0--|
A|--9-m0--9-m0--9-m0--22222-44444--|L-0--|
D|----m0----m0----m0---------------|A-0--| [4x]
G|-11----11----11-----44444-66666--|S----|
B|---------------------------------|T----|
E|---------------------------------|-----|

Final Breakdown
D|----m0-m0000000----m0-m00-------|
A|----m0-m0000000----m0-m00-------|
D|----m0-m0000000----m0-m00-------| [5x]
G|-10-------------10--------7/10--|
B|--7--------------7--------4/-7--|
E|--------------------------------|

Written by Sorry For The Silence (Arlington Sleeps)
Tabbed by Michael Muccioli from Arlington Sleeps
myspace.com/arlingtonsleeps
myspace.com/michaelyourcrazy if you have any questions.
Tap to rate this tab
# A B C D E F G H I J K L M N O P Q R S T U V W X Y Z