Song name
# A B C D E F G H I J K L M N O P Q R S T U V W X Y Z

Misc Unsigned Bands - Steel Rebellion - Fuck The Police Body Cont Cover tab

          Song: Cop Killer 
          Artist: steel rebellion (body count cover) 
          Album: unknown
          
          e-mail: jake.taylor@hotmail.com
         
                                 COP KILLER
          
          [Main Riff]
          
          repeat 3 times
          
          e|--------------------------|-----------------------------|
          b|--------------------------|-----------------------------|
          g|-----------------6--4-6--*|-----------------8-8-8-6--4--|
          d|--6--6--6-6-6-6--6--4-6--*|--6--6--6-6-6-6--8-8-8-6--4--|
          a|--6--6--6-6-6-6--4--2-4---|--6--6--6-6-6-6--6-6-6-4--2--|
          e|--4--4--4-4-4-4-----------|--4--4--4-4-4-4--------------|
          
         
          
          [Chorus]
          
          repeat a few times
          
          |-----------------------------|-------------------|
          |------------------------(4)--|-------------------|
          |--6--6--6-6-6-4----------4--*|--8--4--6----------|
          |--6--6--6-6-6-4----------4--*|--8--4--6--6--3-4--|
          |--4--4--4-4-4-2------2---2---|--6--2--4--6--3-4--|
          |-----------------2h4---4-----|-----------4--1-2--|
          
          thats it for now. e-mail me if i'm wrong about this.
Tap to rate this tab
 
# A B C D E F G H I J K L M N O P Q R S T U V W X Y Z