Song name
# A B C D E F G H I J K L M N O P Q R S T U V W X Y Z

Misc Unsigned Bands - The Podblogadio Show - Unbound tab

This is the theme song for the 2008 summer tour, written
and performed by Oklahoma Christian University's "Unbound". 
We hope this energizes your desire to be creative and to use
your talents and abilities for God.

OPENING VERSION:

INTRO:

e|-5---5---4---4---2---2---0---0-----------------|
B|--0---0---0---0---0---0---0---0----------------|  
G|-----------------------------------------------| repeat
D|-----------------------------------------------|  (3X)
A|-----------------------------------------------|
E|-----------------------------------------------|
- "thanks for tuning into our show" (words begin on the third time)

e|-5----5----4----4----2---------------|
B|--0----0----0----0---0---------------|  
G|-------------------------------------| let ring
D|-------------------------------------| 
A|-------------------------------------|
E|-------------------------------------|
- "it's the inchy squinchy podblogadio" (hold the "o")


CHORUS:

e|---0000---0-----------------0000---0000-------|
B|---0000---0-----------------0000---0000-------|  
G|---1111---2-----------------1111---2222-------| 
D|---2222---2-----------------2222---2222-------| 
A|---2222---0-----------------2222---0000-------|
E|---0000---X-----------------0000---XXXX-------|
-------------"the podblogadio show"


VERSE:

e|--------------------------------------------------|
B|--------------------------------------------------|  
G|--------------------------------------------------|
D|------------------2--2--2--2--2--2--2--2----------|
A|-2-2-2-2-2-2-2-2--0--0--0--0--0--0--0--0----------|
E|-0-0-0-0-0-0-0-0--X--X--X--X--X--X--X--X----------|
- "maybe you saw us in a magazine, but i"

e|--------------------------------------------------|
B|--------------------------------------------------|  
G|--------------------------------------------------|
D|---------------------------2-2-2-2-2-2-2-2--------|
A|-2--2--2--2--2--2--2--2----0-0-0-0-0-0-0-0--------|
E|-0--0--0--0--0--0--0--0----X-X-X-X-X-X-X-X--------|
- "highly doubt that we were in a magazine"

e|-------------------------------------------------------|
B|-------------------------------------------------------|  
G|-------------------------------------------------------|
D|-------------------------2--2--2--2--2--2--2--2--------|
A|-2--2--2--2--2--2--2--2--0--0--0--0--0--0--0--0--------|
E|-0--0--0--0--0--0--0--0--X--X--X--X--X--X--X--X--------|
- "or maybe you  heard us  on the radio,    but i"

e|---------------------------------------------------------|
B|---------------------------------------------------------|  
G|---------------------------------------------------------|
D|----------------------------------2-2-2-2-2-2-2-2--------|
A|-2---2---2---2---2---2---2---2----0-0-0-0-0-0-0-0--------|
E|-0---0---0---0---0---0---0---0----X-X-X-X-X-X-X-X--------|
- "don't  think  so  cuz this is    our first show"


CHORUS:

e|--------------------0000---0-----------------0000---0|
B|--------------------0000---0-----------------0000---0|  
G|--------------------1111---2-----------------1111---2| 
D|-2------------------2222---2-----------------2222---2| 
A|-0------------------2222---0-----------------2222---0|
E|-X------------------0000---X-----------------0000---X|
---- "the podblogadio show"   "the podblogadio show"


ENDING:

e|------------0------0------X---X----X--0----X-----|
B|------------0------0------X---X----X--0----X-----|  
G|------------1------2------4---6----8--9----X-----| 
D|------------2------2------4---6----9--9----X-----| 
A|------------2------0------2---4----6--7----X-----|
E|------------0------X------X---X----X--0----X-----|
- "it's the inchy squinchy pod blog adi o! show"


CLOSING VERSION:

INTRO:

e|-5---5---4---4----2----2----0---0---------|
B|--0---0---0---0----0----0----0---0--------|  
G|------------------------------------------| repeat
D|------------------------------------------|  (3X)
A|------------------------------------------|
E|------------------------------------------|
- "we hope to see you next time around" 

e|-5----5----4----4----2---2----------------|
B|--0----0----0----0----0---0---------------|  
G|------------------------------------------|
D|-------------------------------22222------| 
A|-------------------------------00000------|
E|-------------------------------XXXXX------|
- "thanks for listening, we are unbound"


CHORUS:

e|--------------------0000---0-----------------0000---0|
B|--------------------0000---0-----------------0000---0|  
G|--------------------1111---2-----------------1111---2| 
D|-2------------------2222---2-----------------2222---2| 
A|-0------------------2222---0-----------------2222---0|
E|-X------------------0000---X-----------------0000---X|
---- "the podblogadio show"   "the podblogadio show"


ENDING:

e|------------0------0------X---X----X--0----X-----|
B|------------0------0------X---X----X--0----X-----|  
G|------------1------2------4---6----8--9----X-----| 
D|------------2------2------4---6----9--9----X-----| 
A|------------2------0------2---4----6--7----X-----|
E|------------0------X------X---X----X--0----X-----|
- "it's the inchy squinchy pod blog adi o! show"



NOTE: the spacing between the chords are simply to express where
which words go with which chords (the song has mainly straight 
rhythm throughout)


We hope this tab is easy to understand, but if not or if you have any questions, feel
free to email us. Keep playing, praying, and come see our shows!

- Unbound
Tap to rate this tab
# A B C D E F G H I J K L M N O P Q R S T U V W X Y Z