Song name
# A B C D E F G H I J K L M N O P Q R S T U V W X Y Z

Misc Unsigned Bands - Cigarettes And Tea - Before I Speak tab

Highlighted       Show chord diagrams
>>>>intro>>>>>>
e|--------------------------------------------------------------------|
B|----1-0-1----1-0-1---1-0-1---1-3-1---1-0-1----1-0-1---1-0-1---1-3-1-|
G|--2--------------------------------2--------------------------------|
D|-----------3-------2-------0----------------3-------2-------0-------|
A|--------------------------------------------------------------------|
E|--------------------------------------------------------------------|


      Chords are played like this for best part of the song..
    AM  F   C   AO          EM  F
e|--0---0---0---0-0-0---!---0---0-------------|
B|--1---1---1---1-3-1---!---0---1-------------|
G|--2---2---0---0-0-0---!---0---2-------------|
D|--2---3---2---0-0-0---!---2---3-------------|
A|--0---3---3---x-x-x---!---2---3-------------|
E|--0---0---3---x-x-x---!---0-----------------|


AM          F                 C       AO
  i miss you on the sleeps you take
AM            F                C           AO
  it makes it worth it just to see you wake
AM             F                   C       AO
  sometimes it feels like hide and seek
AM              F        C           AO
  sometimes you get me before i speak
EM                            F
  and i know that there'll be trouble ahead
EM                                     F
  that you'll have to deal with by yourself instead
EM                           F
  and im sorry you wont want me there
EM                             F
  but hey thats cool because i know you care

e|--------------------------------------------------------------------|
B|----1-0-1----1-0-1---1-0-1---1-3-1---1-0-1----1-0-1---1-0-1---1-3-1-|
G|--2--------------------------------2--------------------------------|
D|-----------3-------2-------0----------------3-------2-------0-------|
A|--------------------------------------------------------------------|
E|--------------------------------------------------------------------|


AM          F                 C       AO
  i miss you on the sleeps you take
AM            F                C           AO
  it makes it worth it just to see you wake
AM             F                   C       AO
  sometimes it feels like hide and seek
AM              F        C           AO
  sometimes you get me before i speak
AM           F                C       AO
  you are my sunshine after a storm
AM             F               C            AO
  i can be your blanket let me keep you warm
AM                F              C    AO
  when im looking deep into your eyes
AM             F                 C      AO
  and you blink i still get surprised
AM                     F                     C          AO
  little worried there gone but they haven't gone far
AM                F               C    AO
  then there back yea there they are
AM          F        C     AO
  my little pools of blue
AM            F               C     AO
  your little gift to me from you
AM                F               C      AO
  your smile could, could make me melt
AM        F              C                AO
  i never lied about the way i felt

AM          F                 C       AO
  i miss you on the sleeps you take
AM            F                C           AO
  it makes it worth it just to see you wake
AM             F                   C       AO
  sometimes it feels like hide and seek
AM              F        C           AO
  sometimes you get me before i speak
AM              F        C           AO
  sometimes you get me before i speak
Tap to rate this tab
# A B C D E F G H I J K L M N O P Q R S T U V W X Y Z