Song name
# A B C D E F G H I J K L M N O P Q R S T U V W X Y Z

Misc Unsigned Bands - Dark Lotus - Withered tab

-------------------------------------------------------------------------------
			     Withered - Dark Lotus
-------------------------------------------------------------------------------
Tabbed by:  ac3of5padez


My first tab.  I love this song and took some time to figure out the intro part. Just 
playing a few months ago.  enjoy. Woot woot


e|--------------------------------------------------------------------------|
B|-----------3---------2----------------3---------2-------------------------|
G|---------2---------2----------------2---------2---------------------------|
D|-------2---------2----------------2---------2-----------------------------|
A|-----3---------2----------0--2--3---------3-------------------------------|
E|--------------------------------------------------------------------------|


Let strings ring throughout


Thats the intro! Fun, easy, and its played throughout the song.

I'd like to see some more dark lotus tabs!

http://www.myspace.com/darklotus
Tap to rate this tab
# A B C D E F G H I J K L M N O P Q R S T U V W X Y Z