Guitaretab - guitar tabs
Song name
# A B C D E F G H I J K L M N O P Q R S T U V W X Y Z

Misc Unsigned Bands - Nightmare Autopsy - Your Fear tab

----------------------------------------------------------------------------
			     Your Fear - Nightmare Autopsy
----------------------------------------------------------------------------
Tabbed by: Bradley Cameron
Email:bradley_553skate@hotmail.com

Tuning: Drop C

This is my band Nightmare Autopsy's first single the song is called Your Fear. I decided 
tab it on here cause i needed to tab it up but couldnt be bothered to tab it twice so i 
did it on here straight away. Anyway enjoy.


Play 3 times
Verse
e|---------------------------------------------------------------------------|
B|--------8-7h8p7------------8-7h8p7------------8-7h8p7------------8-7h8p7---|
G|------9---------9-7~-----9---------7--------9---------9-7~-----9-----------|
D|----9------------------9-------------9~---9------------------9-------------|
A|--7------------------7------------------7------------------7---------------|
E|---------------------------------------------------------------------------|
                              Bridge
e|---------------------------------x-x-x-----x-x-x-----x-x-x------|
B|----------7h8p7h8p78p7h8p7---2-2-x-x-x-2-2-x-x-x-2-2-x-x-x-2----|
G|--9---7-9--------------------2-2-x-x-x-2-2-x-x-x-2-2-x-x-x-2----|
D|----7------------------------2-2-x-x-x-2-2-x-x-x-2-2-x-x-x-2----|
A|-----------------------------0-0-x-x-x-0-0-x-x-x-0-0-x-x-x-0----|
E|---------------------------------x-x-x-----x-x-x-----x-x-x------|
[ Tab from: http://www.guitaretab.com/m/misc-unsigned-bands/111708.html ]
Chorus
e|---------------------------------------------------------------|
B|---------------------------------------------------------------|
G|---------------------------------------------------------------|
D|---------------------------------------------------------------|
A|-0-0000-0-0000-------0-0000-0-0000-------0-0000-0-0000---------|
E|-0-0000-0-0000-4p1p0-0-0000-0-0000-4p1p0-0-0000-0-0000-4p1p0---|
     ....   ....         ....   ....         ....   ....
2nd Verse
Play 4 times
e|--------------------------------------------------------|
B|-------8-8------8-8------7-7---------7h8p7h8p7h8p7h8p7--|
G|-------9-9------7-7------7-7-9---7-9--------------------|
D|-------9-9------9-9------7-7---7------------------------|
A|-------7-7------7-7------7-7----------------------------|
E|--0000-----0000-----0000--------------------------------|

Go Back To Bridge And Chorus Again But Miss out the Verse Afterwards.

Breakdown
Play 4 times
e|----------------------------------------------|
B|------------------8-7-8~----------------------|
G|----------------9-----------------------------|
D|--------------9-------------------------------|
A|--0-00-4~-7-9-------------0-00-4~-1~-4~-0~----|
E|--0-00-4~-----------------0-00-4~-1~-4~-0~----|
      ..    . . . .           ..

| /  Slide up
| \  Slide down
| h  Hammer-on
| p  Pull-off
| ~  Hold note
| .  Palm mute
| x  Dead strum

============================================================================
Related for Nightmare Autopsy - Your Fear tab