Guitaretab - guitar tabs
Song name
# A B C D E F G H I J K L M N O P Q R S T U V W X Y Z

Misc Unsigned Bands - Daniel Lohues And Lousiana Blues Club - Stiekumste Verdriet tab

-------------------------------------------------------------------------------
	     Stiekumste Verdriet - Daniel Lohues & Louisiana Blues Club
-------------------------------------------------------------------------------
Tabbed by: Radiowood
Email: joost3200gtbaarssen@hotmail.com

Tuning: Standard

Intro:
e|-----6-9b(10)------------6--6---------------6-------------------------------------------------|
B|/6-9---------6-6~--6-6-9b-9b9p6-6-----------9p6-6--------------------------------------------|
G|--------------------------------8-8p6----6-7----8-8-6-----------------------------------------|
D|-------------------------------------8-8-------------888-8-p7p6-------------------------------|
A|---------------------------------------------------------------8-8~---------------------------|
E|----------------------------------------------------------------------------------------------|

Verse: 0:19			0:27	
e|-----------------------------|----------------------------------------------------------------|
B|9---------9------------------|----------------------------------------------------------------|
G|-8brp6-8-6-8brp6-8-6---------|8b-8brp6--6~----------------------------------------------------|
D|--------------------8-8-8p6-8|---------8------------------------------------------------------|
A|---------------------------8-|----------------------------------------------------------------|
E|-----------------------------|----------------------------------------------------------------|

0:31			      0:39	 0:43	
e|---------------------------|--------6-|-----6-------------------------------------------------|
B|9--------------------------|9---------|-------9-6-6-------------------------------------------|
G|-8brp6-6b-8~---6-8-8p6-6~~|-8brp6----|-6-8------8-8-6----------------------------------------|
D|------8------8-8-------8---|-------8--|8--------------888-8-p7p6------------------------------|
A|---------------------------|----------|------------------------8-8~---------------------------|
E|---------------------------|----------|-------------------------------------------------------|

0:55	Hold bend                        1:03     1:09  bend:          	
e|--------------------------------------|--------|----------------------------------------------|
B|--------------------------------------|--------|----------------------------------------------|
G|9b(10)-b~-b~--b~-b~-b~-b~-b~-b-8-6b--|9b(10)~~|9b(10)~-b~-b~-b~-b~-b~-8-6-8brp6-6b~---------|
D|------------------------------------8~|--------|--------------------------------8-------------|
A|--------------------------------------|--------|----------------------------------------------|
E|--------------------------------------|--------|----------------------------------------------|
[ Tab from: http://www.guitaretab.com/m/misc-unsigned-bands/111751.html ]
1:15	Solo: 
e|----|-----------------------------------------------------------------------------9b---------|
B|9---|---9---9----9----9-----99--99---9---9-----9~--9~-99~---9~---99~-11~-11~-1111-------------|
G|-6--|/10--/10--/10--/10--/10--10--10--10--10----10--10--10~--10~------------------------------|
D|--8\|-----------------------------------------------------------------------------------------|
A|----|-----------------------------------------------------------------------------------------|
E|----|-----------------------------------------------------------------------------------------|

e|---------------------------------9b--11-9-11b-11b-9---9-11-11b-11b-9-------------------------|
B|---9-9----9--9----99~-1111~-111111-------------------11--------------11-----------------------|
G|/10---10~--10-10~-----------------------------------------------------------------------------|
D|----------------------------------------------------------------------------------------------|
A|----------------------------------------------------------------------------------------------|
E|----------------------------------------------------------------------------------------------|

             Hold Bend	
e|9-11-11b-b-b-b-b-b-b-b-b-b-11-9-11br(p9)----|-------------------------------------------------|
B|--------------------------------------11-11~|---9--9----9-9h11----11-9------------------------|
G|--------------------------------------------|/10--10-10~-10---10-10---10-10-8-6-8b~-8b-8brp6--|
D|--------------------------------------------|------------------------------------------------8|
A|--------------------------------------------|-------------------------------------------------|
E|--------------------------------------------|-------------------------------------------------|

e|--6-------------------------------------------------------------------------------------------|
B|----9-----------------------------------------------------------------------------------------|
G|-6----8-6--8-6--------------------------------------------------------------------------------|
D|8--------8----8--888--8p7p6-------------------------------------------------------------------|
A|---------------------------88~-8-7-6-4b(5)----------------------------------------------------|
E|----------------------------------------------------------------------------------------------|

Verse: 2:06                                  2:19
e|-----------------------------------------|----------------------------------------------------|
B|-----------------------------------------|----------------------------------------------------|
G|8b-8b-8b-8brp6--6-8-8-8-6-6-8-6~---------|9b(10)~-b~-b~-b~-b~-b~-b~-b~-b~-b~-b~-b~8brp6--6b--|
D|--------------8----------8-----8-88p6----|---------------------------------------------8------|
A|-------------------------------------8-6\|----------------------------------------------------|
E|-----------------------------------------|----------------------------------------------------|
		
2:26        End:
e|--------6|--9-6-------------------------------------------------------------------------------|
B|9--------|6----9------------------------------------------------------------------------------|
G|--8brp6--|-------8-6--8-6------8-7~-----------------------------------------------------------|
D|-------8-|-----------8---8-8~--9-8~-----------------------------------------------------------|
A|---------|---------------------9-8~-----------------------------------------------------------|
E|---------|---------------------7-6~-----------------------------------------------------------|

| /  slide up
| \  slide down
| h  hammer-on
| p  pull-off
| ~  vibrato
| +  harmonic
| x  Mute note
===============================================================================
Related for Daniel Lohues And Lousiana Blues Club - Stiekumste Verdriet tab